Artists by letter: A B C D E F G H I J K L M N O P Q R S T U V W X Y Z 0-9
 
Summer Paradise Tab
--------------------------------------------
 Simple Plan ~ Summer Paradise feat. K'NAAN
--------------------------------------------
Album: Get Your Heart On!   (2011)

Tabbed By: Russcool
(I know, pretty lame name)

Tuning: Standard

Tempo: About 88

Note: Play with Triplet Feel

Key: D



INTRO

(Waves)

Acoustic Guitar 
E |--x-----2-----------2-----------2-----------2--2----|
B |--x-----3-----------3-----------3-----------3--3----|
G |--x-----2-----------2-----------2-----------2--2----|
D |--x-----0-----------0-----------0-----------0--0----|
A |----------------------------------------------------|
E |----------------------------------------------------|

--------0-----------0-----------0-----------0--0----|
--------2-----------2-----------2-----------2--2----|
--------2-----------2-----------2-----------2--2----|
--------2-----------2-----------2-----------2--2----|
--------0-----------0-----------0-----------0--0----|
----------------------------------------------------|

--------2-----------2-----------2-----------2--2----|
--------3-----------3-----------3-----------3--3----|
--------4-----------4-----------4-----------4--4----|
--------4-----------4-----------4-----------4--4----|
--------2-----------2-----------2-----------2--2----|
----------------------------------------------------|

--------3-----------3-----------3-----------3--3----|
--------3-----------3-----------3-----------3--3----|
--------0-----------0-----------0-----------0--0----|
--------0-----------0-----------0-----------0--0----|
--------x-----------x-----------x-----------x--x----|
--------3-----------3-----------3-----------3--3----|



VERSE

Acoustic Guitar 
--x-----2-----------2-----------2-----------2--2----|
--x-----3-----------3-----------3-----------3--3----|
--x-----2-----------2-----------2-----------2--2----|
--x-----0-----------0-----------0-----------0--0----|
----------------------------------------------------|
----------------------------------------------------|

--------0-----------0-----------0-----------0--0----|
--------2-----------2-----------2-----------2--2----|
--------2-----------2-----------2-----------2--2----|
--------2-----------2-----------2-----------2--2----|
--------0-----------0-----------0-----------0--0----|
----------------------------------------------------|

--------2-----------2-----------2-----------2--2----|
--------3-----------3-----------3-----------3--3----|
--------4-----------4-----------4-----------4--4----|
--------4-----------4-----------4-----------4--4----|
--------2-----------2-----------2-----------2--2----|
----------------------------------------------------|

--------3-----------3-----------3-----------3--3----|
--------3-----------3-----------3-----------3--3----|
--------0-----------0-----------0-----------0--0----|
--------0-----------0-----------0-----------0--0----|
--------x-----------x-----------x-----------x--x----|
--------3-----------3-----------3-----------3--3----|

--x-----2-----------2-----------2-----------2--2----|
--x-----3-----------3-----------3-----------3--3----|
--x-----2-----------2-----------2-----------2--2----|
--x-----0-----------0-----------0-----------0--0----|
----------------------------------------------------|
----------------------------------------------------|

--------0-----------0-----------0-----------0--0----|
--------2-----------2-----------2-----------2--2----|
--------2-----------2-----------2-----------2--2----|
--------2-----------2-----------2-----------2--2----|
--------0-----------0-----------0-----------0--0----|
----------------------------------------------------|

--------2-----------2-----------2-----------2--2----|
--------3-----------3-----------3-----------3--3----|
--------4-----------4-----------4-----------4--4----|
--------4-----------4-----------4-----------4--4----|
--------2-----------2-----------2-----------2--2----|
----------------------------------------------------|

--------3-----------3-----------3-----------3--3----|
--------3-----------3-----------3-----------3--3----|
--------0-----------0-----------0-----------0--0----|
--------0-----------0-----------0-----------0--0----|
--------x-----------x-----------x-----------x--x----|
--------3-----------3-----------3-----------3--3----|



PRE-CHORUS

Acoustic Guitar 1   (I'm not so sure about this riff)
--2-----------------------3-------------------------|
-----3-----3--2--------------3-----3--2-------------|
--------4--------4--4-----------4--------4--4-------|
----------------------------------------------------|
----------------------------------------------------|
----------------------------------------------------|

--2-----------------------0-------------------------|
-----3-----3--2--------------2-----2--0-------------|
--------4--------4--4-----------2--------2--2-------|
----------------------------------------------------|
----------------------------------------------------|
----------------------------------------------------|

--2-----------------------3-------------------------|--2----|
-----3-----3--2--------------3-----3--2-------------|--2----|
--------4--------4--4-----------4--------4--4-------|--3----|
----------------------------------------------------|--2----|
----------------------------------------------------|--4----|
----------------------------------------------------|--2----|

Acoustic Guitar 2
--2--2--2--2--3--3--3--3----|
--3--3--3--3--3--3--3--3----|
--4--4--4--4--0--0--0--0----|
--4--4--4--4--0--0--0--0----|
--2--2--2--2--x--x--x--x----|
--------------3--3--3--3----|

--2--2--2--2--0--0--0--0----|--2--2--2--2--3--3--3--3----|--2----|
--3--3--3--3--2--2--2--2----|--3--3--3--3--3--3--3--3----|--2----|
--2--2--2--2--2--2--2--2----|--4--4--4--4--0--0--0--0----|--3----|
--0--0--0--0--2--2--2--2----|--4--4--4--4--0--0--0--0----|--2----|
--------------0--0--0--0----|--2--2--2--2--x--x--x--x----|--4----|
----------------------------|--------------3--3--3--3----|--2----|



CHORUS

Acoustic Guitar
-----3-----3-----2-----2----|-----0-----0-----2-----0----|
-----3-----3-----3-----3----|-----2-----2-----3-----2----|
-----0-----0-----2-----2----|-----2-----2-----4-----2----|
-----0-----0-----0-----0----|-----2-----2-----4-----2----|
-----x-----x----------------|-----0-----0-----2-----0----|
-----3-----3----------------|----------------------------|

-----3-----3-----2-----2----|-----0-----0-----2-----0----|
-----3-----3-----3-----3----|-----2-----2-----3-----2----|
-----0-----0-----2-----2----|-----2-----2-----4-----2----|
-----0-----0-----0-----0----|-----2-----2-----4-----2----|
-----x-----x----------------|-----0-----0-----2-----0----|
-----3-----3----------------|----------------------------|

-----3-----3-----2-----2----|-----0-----0-----2-----0----|
-----3-----3-----3-----3----|-----2-----2-----3-----2----|
-----0-----0-----2-----2----|-----2-----2-----4-----2----|
-----0-----0-----0-----0----|-----2-----2-----4-----2----|
-----x-----x----------------|-----0-----0-----2-----0----|
-----3-----3----------------|----------------------------|

-----3-----3-----0--0--0----|
-----3-----3-----2--2--2----|
-----0-----0-----2--2--2----|
-----0-----0-----2--2--2----|
-----x-----x-----0--0--0----|
-----3-----3----------------|

(Heart Beat...)
--x-----2-----------2-----------2-----------2--2----|
--x-----3-----------3-----------3-----------3--3----|
--x-----2-----------2-----------2-----------2--2----|
--x-----0-----------0-----------0-----------0--0----|
----------------------------------------------------|
----------------------------------------------------|

--x-----2-----------2-----------2-----------2--2----|
--x-----3-----------3-----------3-----------3--3----|
--x-----2-----------2-----------2-----------2--2----|
--x-----0-----------0-----------0-----------0--0----|
----------------------------------------------------|
----------------------------------------------------|

--x-----2-----------2-----------2-----------2--2----|
--x-----3-----------3-----------3-----------3--3----|
--x-----2-----------2-----------2-----------2--2----|
--x-----0-----------0-----------0-----------0--0----|
----------------------------------------------------|
----------------------------------------------------|

--x--2-----2--2-------------|
--x--3-----3--3-------------|
--x--2-----2--2-------------|
--x--0-----0--0-------------|
----------------------------|
----------------------------|

Electric Guitar
----------------------------|----------------------------|
----------------------------|----------------------------|
-----------------7-----7----|----------------------------|
-----5-----5-----7-----7----|-----7-----7-----9-----7----|
-----5-----5-----5-----5----|-----7-----7-----9-----7----|
-----3-----3----------------|-----5-----5-----7-----5----|

----------------------------|----------------------------|
----------------------------|----------------------------|
-----------------7-----7----|----------------------------|
-----5-----5-----7-----7----|-----7-----7-----9-----7----|
-----5-----5-----5-----5----|-----7-----7-----9-----7----|
-----3-----3----------------|-----5-----5-----7-----5----|

----------------------------|----------------------------|
----------------------------|----------------------------|
-----------------7-----7----|----------------------------|
-----5-----5-----7-----7----|-----7-----7-----9-----7----|
-----5-----5-----5-----5----|-----7-----7-----9-----7----|
-----3-----3----------------|-----5-----5-----7-----5----|

(Heart Beat...)
----------------------------|-------|-------|-------|-------|
----------------------------|-------|-------|-------|-------|
----------------------------|--7L---|--7----|-------|-------|
-----5-----5-----7--7--7----|--7L---|--7----|-------|-------|
-----5-----5-----7--7--7----|--5L---|--5----|-------|-------|
-----3-----3-----5--5--5----|-------|-------|-------|-------|



VERSE

Acoustic Guitar 1
----------------------------------------------------|
--------7-----------7-----------7-----------7--7----|
--7-----7-----7-----7-----7-----7-----7-----7--7----|
----------------------------------------------------|
----------------------------------------------------|
----------------------------------------------------|

----------------------------------------------------|
--------5-----------5-----------5-----------5--5----|
--7-----7-----7-----7-----7-----7-----7-----7--7----|
----------------------------------------------------|
----------------------------------------------------|
----------------------------------------------------|

----------------------------------------------------|
--------7-----------7-----------7-----------7--7----|
--7-----7-----7-----7-----7-----7-----7-----7--7----|
----------------------------------------------------|
----------------------------------------------------|
----------------------------------------------------|

----------------------------------------------------|
--8--------7--------5-----------5-----3-----5-------|
--7--------7--------7-----------7-----7-----7-------|
----------------------------------------------------|
----------------------------------------------------|
----------------------------------------------------|

----------------------------------------------------|
--------7-----------7-----------7-----------7--7----|
--7-----7-----7-----7-----7-----7-----7-----7--7----|
----------------------------------------------------|
----------------------------------------------------|
----------------------------------------------------|

----------------------------------------------------|
--------5-----------5-----------5-----------5--5----|
--7-----7-----7-----7-----7-----7-----7-----7--7----|
----------------------------------------------------|
----------------------------------------------------|
----------------------------------------------------|

----------------------------------------------------|
--------7-----------7-----------7-----------7--7----|
--7-----7-----7-----7-----7-----7-----7-----7--7----|
----------------------------------------------------|
----------------------------------------------------|
----------------------------------------------------|

----------------------------------------------------|
--8--------7--------5-----------5-----3-----5-------|
--7--------7--------7-----------7-----7-----7-------|
----------------------------------------------------|
----------------------------------------------------|
----------------------------------------------------|

Acoustic Guitar 2
--x-----2-----------2-----------2-----------2--2----|
--x-----3-----------3-----------3-----------3--3----|
--x-----2-----------2-----------2-----------2--2----|
--x-----0-----------0-----------0-----------0--0----|
----------------------------------------------------|
----------------------------------------------------|

--------0-----------0-----------0-----------0--0----|
--------2-----------2-----------2-----------2--2----|
--------2-----------2-----------2-----------2--2----|
--------2-----------2-----------2-----------2--2----|
--------0-----------0-----------0-----------0--0----|
----------------------------------------------------|

--------2-----------2-----------2-----------2--2----|
--------3-----------3-----------3-----------3--3----|
--------4-----------4-----------4-----------4--4----|
--------4-----------4-----------4-----------4--4----|
--------2-----------2-----------2-----------2--2----|
----------------------------------------------------|

--------3-----------3-----------3-----------3--3----|
--------3-----------3-----------3-----------3--3----|
--------0-----------0-----------0-----------0--0----|
--------0-----------0-----------0-----------0--0----|
--------x-----------x-----------x-----------x--x----|
--------3-----------3-----------3-----------3--3----|

--x-----2-----------2-----------2-----------2--2----|
--x-----3-----------3-----------3-----------3--3----|
--x-----2-----------2-----------2-----------2--2----|
--x-----0-----------0-----------0-----------0--0----|
----------------------------------------------------|
----------------------------------------------------|

--------0-----------0-----------0-----------0--0----|
--------2-----------2-----------2-----------2--2----|
--------2-----------2-----------2-----------2--2----|
--------2-----------2-----------2-----------2--2----|
--------0-----------0-----------0-----------0--0----|
----------------------------------------------------|

--------2-----------2-----------2-----------2--2----|
--------3-----------3-----------3-----------3--3----|
--------4-----------4-----------4-----------4--4----|
--------4-----------4-----------4-----------4--4----|
--------2-----------2-----------2-----------2--2----|
----------------------------------------------------|

--------3-----------3-----------3-----------3--3----|
--------3-----------3-----------3-----------3--3----|
--------0-----------0-----------0-----------0--0----|
--------0-----------0-----------0-----------0--0----|
--------x-----------x-----------x-----------x--x----|
--------3-----------3-----------3-----------3--3----|



PRE-CHORUS

Acoustic Guitar 1
--2-----------3-------------|--2-----------0-------------|
-----3-----3-----3-----3----|-----3-----3-----2-----2----|
--------4-----------4-------|--------4-----------2-------|
----------------------------|----------------------------|
----------------------------|----------------------------|
----------------------------|----------------------------|

--2-----------3-------------|--2-----2-----2-----2-------|
-----3-----3-----3-----3----|-----2-----2-----2-----2----|
--------4-----------4-------|----------------------------|
----------------------------|----------------------------|
----------------------------|----------------------------|
----------------------------|----------------------------|

Acoustic Guitar 2
--2--2--2--2--3--3--3--3----|--2--2--2--2--0--0--0--0----|
--3--3--3--3--3--3--3--3----|--3--3--3--3--2--2--2--2----|
--4--4--4--4--0--0--0--0----|--2--2--2--2--2--2--2--2----|
--4--4--4--4--0--0--0--0----|--0--0--0--0--2--2--2--2----|
--2--2--2--2--x--x--x--x----|--------------0--0--0--0----|
--------------3--3--3--3----|----------------------------|

--2--2--2--2--3--3--3--3----|--2--2--2--2--2--2--2--2----|
--3--3--3--3--3--3--3--3----|--2--2--2--2--2--2--2--2----|
--4--4--4--4--0--0--0--0----|--3--3--3--3--3--3--3--3----|
--4--4--4--4--0--0--0--0----|--2--2--2--2--2--2--2--2----|
--2--2--2--2--x--x--x--x----|--4--4--4--4--4--4--4--4----|
--------------3--3--3--3----|--2--2--2--2--2--2--2--2----|



CHORUS
(Same as last one)



BRIDGE

(K'NAAN raps)

Acoustic Guitar
--x-----2-----------2-----------2-----------2--2----|
--x-----3-----------3-----------3-----------3--3----|
--x-----2-----------2-----------2-----------2--2----|
--x-----0-----------0-----------0-----------0--0----|
----------------------------------------------------|
----------------------------------------------------|

--------0-----------0-----------0-----------0--0----|
--------2-----------2-----------2-----------2--2----|
--------2-----------2-----------2-----------2--2----|
--------2-----------2-----------2-----------2--2----|
--------0-----------0-----------0-----------0--0----|
----------------------------------------------------|

--------2-----------2-----------2-----------2--2----|
--------3-----------3-----------3-----------3--3----|
--------4-----------4-----------4-----------4--4----|
--------4-----------4-----------4-----------4--4----|
--------2-----------2-----------2-----------2--2----|
----------------------------------------------------|

--------3-----------3-----------3-----------3--3----|
--------3-----------3-----------3-----------3--3----|
--------0-----------0-----------0-----------0--0----|
--------0-----------0-----------0-----------0--0----|
--------x-----------x-----------x-----------x--x----|
--------3-----------3-----------3-----------3--3----|

--x-----2-----------2-----------2-----------2--2----|
--x-----3-----------3-----------3-----------3--3----|
--x-----2-----------2-----------2-----------2--2----|
--x-----0-----------0-----------0-----------0--0----|
----------------------------------------------------|
----------------------------------------------------|

--------0-----------0-----------0-----------0--0----|
--------2-----------2-----------2-----------2--2----|
--------2-----------2-----------2-----------2--2----|
--------2-----------2-----------2-----------2--2----|
--------0-----------0-----------0-----------0--0----|
----------------------------------------------------|

--------2-----------2-----------2-----------2--2----|
--------3-----------3-----------3-----------3--3----|
--------4-----------4-----------4-----------4--4----|
--------4-----------4-----------4-----------4--4----|
--------2-----------2-----------2-----------2--2----|
----------------------------------------------------|

--------3-----------3-----------3-----------3--3----|
--------3-----------3-----------3-----------3--3----|
--------0-----------0-----------0-----------0--0----|
--------0-----------0-----------0-----------0--0----|
--------x-----------x-----------x-----------x--x----|
--------3-----------3-----------3-----------3--3----|

Electric Guitar
--10---|--9----|--7----|--3----|
-------|-------|-------|-------|
-------|-------|-------|-------|
-------|-------|-------|-------|
-------|-------|-------|-------|
-------|-------|-------|-------|

--10---|--9----|--7----|--3----|
-------|-------|-------|-------|
-------|-------|-------|-------|
-------|-------|-------|-------|
-------|-------|-------|-------|
-------|-------|-------|-------|



PRE-CHORUS

Acoustic Guitar
--2--3----|--2--0----|
--3--3----|--3--2----|
--4--0----|--2--2----|
--4--0----|--0--2----|
--2--x----|-----0----|
-----3----|----------|

--2--3----|--2----|
--3--3----|--2----|
--4--0----|--3----|
--4--0----|--2----|
--2--x----|--4----|
-----3----|--2----|



CHORUS

Acoustic Guitar
-----3-----3-----2-----2----|-----0-----0-----2-----0----|
-----3-----3-----3-----3----|-----2-----2-----3-----2----|
-----0-----0-----2-----2----|-----2-----2-----4-----2----|
-----0-----0-----0-----0----|-----2-----2-----4-----2----|
-----x-----x----------------|-----0-----0-----2-----0----|
-----3-----3----------------|----------------------------|

-----3-----3-----2-----2----|-----0-----0-----2-----0----|
-----3-----3-----3-----3----|-----2-----2-----3-----2----|
-----0-----0-----2-----2----|-----2-----2-----4-----2----|
-----0-----0-----0-----0----|-----2-----2-----4-----2----|
-----x-----x----------------|-----0-----0-----2-----0----|
-----3-----3----------------|----------------------------|

-----3-----3-----2-----2----|-----0-----0-----2-----0----|
-----3-----3-----3-----3----|-----2-----2-----3-----2----|
-----0-----0-----2-----2----|-----2-----2-----4-----2----|
-----0-----0-----0-----0----|-----2-----2-----4-----2----|
-----x-----x----------------|-----0-----0-----2-----0----|
-----3-----3----------------|----------------------------|

-----3-----3-----0--0--0----|
-----3-----3-----2--2--2----|
-----0-----0-----2--2--2----|
-----0-----0-----2--2--2----|
-----x-----x-----0--0--0----|
-----3-----3----------------|

-----3-----3-----2-----2----|-----0-----0-----2-----0----|
-----3-----3-----3-----3----|-----2-----2-----3-----2----|
-----0-----0-----2-----2----|-----2-----2-----4-----2----|
-----0-----0-----0-----0----|-----2-----2-----4-----2----|
-----x-----x----------------|-----0-----0-----2-----0----|
-----3-----3----------------|----------------------------|

-----3-----3-----2-----2----|-----0-----0-----2-----0----|
-----3-----3-----3-----3----|-----2-----2-----3-----2----|
-----0-----0-----2-----2----|-----2-----2-----4-----2----|
-----0-----0-----0-----0----|-----2-----2-----4-----2----|
-----x-----x----------------|-----0-----0-----2-----0----|
-----3-----3----------------|----------------------------|

-----3-----3-----2-----2----|-----0-----0-----2-----0----|
-----3-----3-----3-----3----|-----2-----2-----3-----2----|
-----0-----0-----2-----2----|-----2-----2-----4-----2----|
-----0-----0-----0-----0----|-----2-----2-----4-----2----|
-----x-----x----------------|-----0-----0-----2-----0----|
-----3-----3----------------|----------------------------|

-----3-----3-----0--0--0----|
-----3-----3-----2--2--2----|
-----0-----0-----2--2--2----|
-----0-----0-----2--2--2----|
-----x-----x-----0--0--0----|
-----3-----3----------------|

Electric Guitar
----------------------------|----------------------------|
----------------------------|----------------------------|
-----------------7-----7----|----------------------------|
-----5-----5-----7-----7----|-----7-----7-----9-----7----|
-----5-----5-----5-----5----|-----7-----7-----9-----7----|
-----3-----3----------------|-----5-----5-----7-----5----|

----------------------------|----------------------------|
----------------------------|----------------------------|
-----------------7-----7----|----------------------------|
-----5-----5-----7-----7----|-----7-----7-----9-----7----|
-----5-----5-----5-----5----|-----7-----7-----9-----7----|
-----3-----3----------------|-----5-----5-----7-----5----|

----------------------------|----------------------------|
----------------------------|----------------------------|
-----------------7-----7----|----------------------------|
-----5-----5-----7-----7----|-----7-----7-----9-----7----|
-----5-----5-----5-----5----|-----7-----7-----9-----7----|
-----3-----3----------------|-----5-----5-----7-----5----|
                           
----------------------------|
----------------------------|
----------------------------|
-----5-----5-----7--7--7----|
-----5-----5-----7--7--7----|
-----3-----3-----5--5--5----|

----------------------------|----------------------------|
----------------------------|----------------------------|
-----------------7-----7----|----------------------------|
-----5-----5-----7-----7----|-----7-----7-----9-----7----|
-----5-----5-----5-----5----|-----7-----7-----9-----7----|
-----3-----3----------------|-----5-----5-----7-----5----|

----------------------------|----------------------------|
----------------------------|----------------------------|
-----------------7-----7----|----------------------------|
-----5-----5-----7-----7----|-----7-----7-----9-----7----|
-----5-----5-----5-----5----|-----7-----7-----9-----7----|
-----3-----3----------------|-----5-----5-----7-----5----|

----------------------------|----------------------------|
----------------------------|----------------------------|
-----------------7-----7----|----------------------------|
-----5-----5-----7-----7----|-----7-----7-----9-----7----|
-----5-----5-----5-----5----|-----7-----7-----9-----7----|
-----3-----3----------------|-----5-----5-----7-----5----|
                            
----------------------------|
----------------------------|
----------------------------|
-----5-----5-----7--7--7----|
-----5-----5-----7--7--7----|
-----3-----3-----5--5--5----|



OUTRO

Acoustic Guitar
(Heart Beat...)
--x-----2-----------2-----------2-----------2--2----|
--x-----3-----------3-----------3-----------3--3----|
--x-----2-----------2-----------2-----------2--2----|
--x-----0-----------0-----------0-----------0--0----|
----------------------------------------------------|
----------------------------------------------------|

--x-----2-----------2-----------2-----------2--2----|
--x-----3-----------3-----------3-----------3--3----|
--x-----2-----------2-----------2-----------2--2----|
--x-----0-----------0-----------0-----------0--0----|
----------------------------------------------------|
----------------------------------------------------|

--x-----2-----------2-----------2-----------2--2----|
--x-----3-----------3-----------3-----------3--3----|
--x-----2-----------2-----------2-----------2--2----|
--x-----0-----------0-----------0-----------0--0----|
----------------------------------------------------|
----------------------------------------------------|

--x--2-----2--2-------------|
--x--3-----3--3-------------|
--x--2-----2--2-------------|
--x--0-----0--0-------------|
----------------------------|
----------------------------|





Key:

x   Dead Note

L   Tie Note


Tablature player for this song:
 
 
Simple Plan - Summer Paradise Tab :: indexed at Ultimate Guitar.
Summer Paradise tabs @ 911Tabs

About the artist behind Summer Paradise Tab:

Simple Plan is a French Canadian pop punk band based in Montreal, Quebec, Canada. The band has released three original albums: No Pads, No Helmets...Just Balls (2002), Still Not Getting Any... (2004), and Simple Plan (2008); as well as two live albums: Live in Japan 2002 (2003) and MTV Hard Rock Live (2005).

Indexed at Wikipedia.

Show us your talent, perform Summer Paradise Tab!

Here you can post a video or audio performance. Tell me more ...
Where can we find your performance? Tell me more ...
Your comment:
Please, log in to post your performance.