Artists by letter: A B C D E F G H I J K L M N O P Q R S T U V W X Y Z 0-9
 
Bad Apple Tab
DISCLAIMER: Tablature by Aldeel. ( Http://www.youtube.com/AldeelGuitar ) This tablature
is not to be posted on any website aside from Ultimate-Guitar.com. If you would like to
turn this into a Guitar Pro / Power Tab file please contact me first via PM on youtube 
or by email at Aldeel1991@gmail.com Thank you.

Key:
~ - Hold note
(x) - Optional Fretting

Tuning:
D Standard or Whole Step Down. (D G C F A D) from top to bottom.

Tips:

This tab may or may not be in beat, watch this video to listen to how I play the song to
get the beat and strum patterns, most of it is down picking, but you can do alternating
picking if that is your preffered style. Link: http://youtu.be/dTyBz_UqAKo

[INTRO]

1st
|------------------------------------|------|
|------------------------------------|------|
|------------------------------------|------|
|------------------------------------|---9--|
|-8-8-6h8-6h8-8-8-6h8-6h8-8-8-6h8-6h8|-11-11|
|------------------------------------|------|

2nd
|------------------------------------|------------------|
|------------------------------------|------------------|
|------------------------------------|------------------|
|------------------------------------|------------------|
|-8-8-6h8-6h8-8-8-6h8-6h8-8-8-6h8-6h8|-13-11h13p11-10-11|
|------------------------------------|------------------|

3rd
|------------------------------------|---------|
|------------------------------------|---------|
|------------------------------------|---------|
|------------------------------------|----9----|
|-8-8-6h8-6h8-8-8-6h8-6h8-8-8-6h8-6h8|-11---11-|
|------------------------------------|---------|

4th
|------------------------------------|-------------|
|------------------------------------|-------------|
|------------------------------------|-------------|
|------------------------------------|-------------|
|-8-8-6h8-6h8-8-8-6h8-6h8-8-8-6h8-6h8|-13-11-10-11-|
|------------------------------------|-------------|

[VERSE]

1st
|---------------------------------------------------------|------------------|
|---------------------------------------------------------|------------------|
|--------------10-8---------------------------------------|------------------|
|---------8-10------10----10-8---------------8-10-8-------|------------------|
|-8-10-11--------------8~------11-10-8-10-11--------11-10-|8-10-11-10-8-7-10-|
|---------------------------------------------------------|------------------|

2nd
|---------------------------------------------------------|-------|
|---------------------------------------------------------|-------|
|--------------10-8---------------------------------------|-------|
|---------8-10------10----10-8---------------8-10-8-------|--8-10-|
|-8-10-11--------------8~------11-10-8-10-11--------11-10-|11-----|
|---------------------------------------------------------|-------|

3rd
|---------------------------------------------------------|------------------|
|---------------------------------------------------------|------------------|
|--------------10-8---------------------------------------|------------------|
|---------8-10------10----10-8---------------8-10-8-------|------------------|
|-8-10-11--------------8~------11-10-8-10-11--------11-10-|8-10-11-10-8-7-10-|
|---------------------------------------------------------|------------------|

4th
|---------------------------------------------------------|-------|
|---------------------------------------------------------|-------|
|--------------10-8---------------------------------------|-------|
|---------8-10------10----10-8---------------8-10-8-------|--8-10-|
|-8-10-11--------------8~------11-10-8-10-11--------11-10-|11-----|
|---------------------------------------------------------|-------|

[CHORuS PART 1]

|------------------------------------------------------------------------|
|------------------------------------------------------------------------|
|-8-10---------------8-10------------------------------------------------|
|------10-8-10~~8-10------10-8-10~~-8-10-8-----------------------8-10----|
|------------------------------------------11-10-6-8~~-6-8-10-11------8~~|
|------------------------------------------------------------------------|

|----------------------------------------------------------------------------|
|----------------------------------------------------------------------------|
|-----8-10---------------8-10------------------------------------------------|
|8-10------10-8-10~~8-10------10-8-10~~-8-10-8-----------------------8-10----|
|----------------------------------------------11-10-6-8~~-6-8-10-11------8~~|
|----------------------------------------------------------------------------|

|----------------------------------------------------------------------------|
|----------------------------------------------------------------------------|
|-----8-10---------------8-10------------------------------------------------|
|8-10------10-8-10~~8-10------10-8-10~~-8-10-8-----------------------8-10----|
|----------------------------------------------11-10-6-8~~-6-8-10-11------8~~|
|----------------------------------------------------------------------------|

|----------------------------------------------------------------------------|
|----------------------------------------------------------------------------|
|-----8-10---------------8-10------------------------------------------------|
|8-10------10-8-10~~8-10------10-8-10~~-8-10-8-----------------------8-10----|
|----------------------------------------------11-10-6-8~~-6-8-10-11------8~~|
|----------------------------------------------------------------------------|

|-------------------------------------------------------------------------------|
|-------------------------------------------------------------------------------|
|-----8-10---------------8-10------------10-12-13-12-10-8-----------------------|
|8-10------10-8-10~~8-10------10-8-10~~-------------------10~-8-10-8------------|
|--------------------------------------------------------------------11-10-6-8~~|
|-------------------------------------------------------------------------------|

[BREAKDOWN]

|------------------------|\
|(5)---(7)--- (9)------|\|\ \
|-6~~~~~8~~~~~10~~~~~|  \
|-6~~~~~8~~~~~10~~~~~|  Repat 4 times then pick slide.
|-4~~~~~6~~~~~8~~~~~~| /
|-4~~~~~6~~~~~8~~~~~~|/

[Intro #]
                                        1st
|------------------------------------|--------|
|------------------------------------|--------|
|------------------------------------|--------|
|------------------------------------|---9----|
|-8-8-6h8-6h8-8-8-6h8-6h8-8-8-6h8-6h8|-11--11-|
|------------------------------------|--------|

2nd
|------------------------------------|-------------------|
|------------------------------------|-------------------|
|------------------------------------|-------------------|
|------------------------------------|-------------------|
|-8-8-6h8-6h8-8-8-6h8-6h8-8-8-6h8-6h8|-13-11h13p11-10-11-|
|------------------------------------|-------------------|

3rd
|------------------------------------|---------|
|------------------------------------|---------|
|------------------------------------|---------|
|------------------------------------|----9----|
|-8-8-6h8-6h8-8-8-6h8-6h8-8-8-6h8-6h8|-11---11-|
|------------------------------------|---------|

4th
|------------------------------------|-------------|
|------------------------------------|-------------|
|------------------------------------|-------------|
|------------------------------------|-------------|
|-8-8-6h8-6h8-8-8-6h8-6h8-8-8-6h8-6h8|-13-11-10-11-|
|------------------------------------|-------------|

[VERSE]

1st
|---------------------------------------------------------|------------------|
|---------------------------------------------------------|------------------|
|--------------10-8---------------------------------------|------------------|
|---------8-10------10----10-8---------------8-10-8-------|------------------|
|-8-10-11--------------8~------11-10-8-10-11--------11-10-|8-10-11-10-8-7-10-|
|---------------------------------------------------------|------------------|

2nd
|---------------------------------------------------------|-------|
|---------------------------------------------------------|-------|
|--------------10-8---------------------------------------|-------|
|---------8-10------10----10-8---------------8-10-8-------|--8-10-|
|-8-10-11--------------8~------11-10-8-10-11--------11-10-|11-----|
|---------------------------------------------------------|-------|

3rd
|---------------------------------------------------------|------------------|
|---------------------------------------------------------|------------------|
|--------------10-8---------------------------------------|------------------|
|---------8-10------10----10-8---------------8-10-8-------|------------------|
|-8-10-11--------------8~------11-10-8-10-11--------11-10-|8-10-11-10-8-7-10-|
|---------------------------------------------------------|------------------|

4th
|---------------------------------------------------------|-------|
|---------------------------------------------------------|-------|
|--------------10-8---------------------------------------|-------|
|---------8-10------10----10-8---------------8-10-8-------|--8-10-|
|-8-10-11--------------8~------11-10-8-10-11--------11-10-|11-----|
|---------------------------------------------------------|-------|

[CHORuS PART 1]

|------------------------------------------------------------------------|
|------------------------------------------------------------------------|
|-8-10---------------8-10------------------------------------------------|
|------10-8-10~~8-10------10-8-10~~-8-10-8-----------------------8-10----|
|------------------------------------------11-10-6-8~~-6-8-10-11------8--|
|------------------------------------------------------------------------|

|---------------------------------------------------------------------------|
|---------------------------------------------------------------------------|
|-----8-10---------------8-10-----------------------------------------------|
|8-10------10-8-10~~8-10------10-8-10~~-8-10-8-----------------------8-10---|
|----------------------------------------------11-10-6-8~~-6-8-10-11------8-|
|---------------------------------------------------------------------------|

|---------------------------------------------------------------------------|
|---------------------------------------------------------------------------|
|-----8-10---------------8-10-----------------------------------------------|
|8-10------10-8-10~~8-10------10-8-10~~-8-10-8-----------------------8-10---|
|----------------------------------------------11-10-6-8~~-6-8-10-11------8-|
|---------------------------------------------------------------------------|

|-------------------------------------------------------------------------------|
|-------------------------------------------------------------------------------|
|-----8-10---------------8-10------------10-12-13-12-10-8-----------------------|
|8-10------10-8-10~~8-10------10-8-10~~-------------------10~-8-10-8------------|
|--------------------------------------------------------------------11-10-6-8~-|
|-------------------------------------------------------------------------------|

[OUTRO]

|---------------------------------------------------------------------------|
|---------------------------------------------------------------------------|
|-----9-11---------------9-11-----------------------------------------------|
|9-11------11-9-11~~9-11------11-9-11~~-9-11-9-----------------------9-11---|
|----------------------------------------------12-11-7-9~~-7-9-11-12------9-|
|---------------------------------------------------------------------------|

|---------------------------------------------------------------------------|
|---------------------------------------------------------------------------|
|-----9-11---------------9-11-----------------------------------------------|
|9-11------11-9-11~~9-11------11-9-11~~-9-11-9-----------------------9-11---|
|----------------------------------------------12-11-7-9~~-7-9-11-12------9-|
|---------------------------------------------------------------------------|

|---------------------------------------------------------------------------|
|---------------------------------------------------------------------------|
|-----9-11---------------9-11-----------------------------------------------|
|9-11------11-9-11~~9-11------11-9-11~~-9-11-9-----------------------9-11---|
|----------------------------------------------12-11-7-9~~-7-9-11-12------9-|
|---------------------------------------------------------------------------|

|---------------------------------------------------------------------------------|
|---------------------------------------------------------------------------------|
|-----9-11---------------9-11------------11-13-14-13-11-9-------------------------|
|9-11------11-9-11~~9-11------11-9-11~~-------------------11~-9-11-9--------------|
|--------------------------------------------------------------------12-11-7-9~~~~|
|---------------------------------------------------------------------------------|
Tablature player for this song:
 
 
Touhou Project - Bad Apple Tab :: indexed at Ultimate Guitar.
Bad Apple tabs @ 911Tabs
People who played Touhou Project - Bad Apple Tab also played these songs by Touhou Project:
Bad Apple Chords

Quick tip, so you can enjoy Bad Apple Tab even more:

If you don't really know how to deal with "Absus4" chord and his equally confusing brothers, just put the mouse cursor over them and you will be shown a helpful chord diagram.

Show us your talent, perform Bad Apple Tab!

Here you can post a video or audio performance. Tell me more ...
Where can we find your performance? Tell me more ...
Your comment:
Please, log in to post your performance.