Artists by letter: A B C D E F G H I J K L M N O P Q R S T U V W X Y Z 0-9
 
Vanha Sydan Tab
-------------------------------------------------------------------------
VANHA SYDÄN - Erin
-------------------------------------------------------------------------
Tabbed by: Kengus

Standard tuning

INTRO
                         Am
            ...älä mulle laula
e|-----------------------------------------------------------------------|
B|-------------------------------3--------------3--------------3---------|
G|-----------------------------------------------------------------------|
D|---------------------------5-------5------5-------5------5-------5-----|
A|-------------------------5-------5------5-------5------5-------5-------|
E|-----------------------3-----3--------3-----3--------3-----3--------3--|

VERSE I
   Am
e|-----------------------------------------------------------------------|
B|---------3--------------3--------------3--------------3--------------3-|
G|-----------------------------------------------------------------------|
D|-----5-------5------5-------5------5-------5------5-------5------5-----|
A|---5-------5------5-------5------5-------5------5-------5------5-------|
E|-3-----3--------3-----3--------3-----3--------3-----3--------3-----3---|
        Am7b5   C6     Dm      D#dim    Esus4         E   Am
e|------------------------------------0----------3-----3-----------------|
B|------------1-------3-------1-----2--------3-------3-------------3-----|
G|----------0-------0-------0-----0--------2-------2---------------------|
D|---5----1-------0-------1--------------0-----0-------0-------5-------5-|
A|-5----0-------1-------3-------4----------------------------5-------5---|
E|---------------------------------------------------------3-----3-------|
                                                               Dm      G5/D
e|------------------------3----------------------------------------------|
B|---------3-----------------------------3--------------3------------1---|
G|-----------------------------------------------------------------0-----|
D|-----5-------5------5-------5------5-------5------5-------5----1-----0-|
A|---5-------5------5-------5------5-------5------5-------5----3---------|
E|-3-----3--------3-----3--------3-----3--------3-----3------------------|
         F6     D#dim   E
e|-----3-------3-------0----------------------|
B|---3-------1-------2-----3--------3---------|
G|-0-------0-------0---------2-2------2-2-----|
D|-------1---------------0--------0--------0--|
A|---------------4----------------------------|
E|--------------------------------------------|
                                                               A = 320003
CHORUS                                                        G+ = 321003
A  G+  D  Esus4                                                D = x32013
A  G+  D  Esus4                                            Esus4 = xx0233

VERSE II
   Am
e|-----------------------------------------------------------------------|
B|---------3--------------3--------------3--------------3--------------3-|
G|-----------------------------------------------------------------------|
D|-----5-------5------5-------5------5-------5------5-------5------5-----|
A|---5-------5------5-------5------5-------5------5-------5------5-------|
E|-3-----3--------3-----3--------3-----3--------3-----3--------3-----3---|
                       Am7b5   C6     Dm      D#dim    Esus4         E
e|---------------------------------------------------0----------3-----2--|
B|--------------3------------1-------3-------1-----2--------3-------3----|
G|-------------------------0-------0-------0-----0--------2-------2------|
D|---5------5-------5----1-------0-------1--------------0-----0-------0--|
A|-5------5-------5----0-------1-------3-------4-------------------------|
E|------3-----3----------------------------------------------------------|
                Am
e|-------0---------------------------------------------------------------|
B|---3-------3----------3-------------3-------------3--------------3-----|
G|-2-------2-------------------------------------------------------------|
D|-----0------------5-------5-----5-------5-----5-------5------5-------5-|
A|----------------5-------5-----5-------5-----5-------5------5-------5---|
E|--------------3-----3-------3-----3-------3-----3--------3-----3-------|
                  Dm      G5/D    F6     D#dim   E
e|------------------------------3-------3-------0----------------------|
B|---------3------------1-----3-------1-------2-----3--------3---------|
G|--------------------0-----0-------0-------0---------2-2------2-2-----|
D|-----5-------5----1-----0-------1---------------0--------0--------0--|
A|---5-------5----3-----------------------4----------------------------|
E|-3-----3-------------------------------------------------------------|

CHORUS
G  G+  C  Dsus4
G  G+  C  Dsus4
G  G+  C  Dsus4
G  G+  C  Dsus4

OUTRO
         Am
...uupuneen                                               Vanha, vanha...
e|---------------------------------------------------------|
B|---------------3--------------3--------------3-----------|
G|---------------------------------------------------------|
D|-----------5-------5------5-------5------5-------5-------|
A|---------5-------5------5-------5------5-------5------5--|
E|-------3-----3--------3-----3--------3-----3--------3----|

****

INTRO
(Gm)                                   Am
      Vanha, vanha sydämeni, älä mulle laula

VERSE I
Am
Vanha, vanha sydämeni, älä mulle laula
      Am7b5    C6       Dm        D#dim  Esus4  E
Noita laulujas aina niin nuoren ja rakastuneen
Am
Älä sinä vanha mieli enää mulle jauha
     Dm         G5/D      F6        D#dim  E
Ihan turhaan sä kirvoitat poltteen jo unohtuneen

CHORUS
    A                          G+
Oi, jos se ois niin, hukkuisin huokauksiin
          D                       Esus4
Valvoisin lakanat ryttyyn, saisin kaikesta kii
           A                         G+
Katso, kun kauniina meen, katso, kun loitsin, mä teen
        D                       Esus4
Meille hiiden ja veen, ja aamun uupuneen

VERSE II
Am
Vanha, vanha sydämeni, miksi mulle laulat?
     Am7b5    C6       Dm    D#dim   Esus4  E
Miksi tarjoat kaunista, hienoa rakastajaa?
    Am
Kun hänkin vielä lähtee pois ja sitten mä itken, kaipaan
     Dm     G5/D        F6     D#dim  E
Kuin hiipuva hanki vain oottelen vaeltajaa

CHORUS
    A                       G+
Mut jos oisit mun, uskoisin täysikuuhun
         D                 Esus4
Uskoisin rakkauslauluihin, nääthän sä kun
        A                         G+
Mä niin kauniina meen, katso, kun loitsin, mä teen
        D                       Esus4
Meille hiiden ja veen, ja aamun uupuneen
    A                          G+
Oi, jos se ois niin, hukkuisin huokauksiin
          D                       Esus4
Valvoisin lakanat ryttyyn, saisin kaikesta kii
           A                         G+
Katso, kun kauniina meen, katso, kun loitsin, mä teen
        D                       Esus4   Gm...
Meille hiiden ja veen, ja aamun uupuneen

OUTRO
...
   Vanha, vanha sydämeni, miksi mulle laulat?

=========================================================================
Tablature player for this song:
 
 
Erin - Vanha Sydan Tab :: indexed at Ultimate Guitar.
Vanha Sydan tabs @ 911Tabs
People who played Erin - Vanha Sydan Tab also played these songs by Erin:
Vanha Nainen Hunningolla Chords, Ole Vaan Chords, On Elm Laina Chords

Quick tip, so you can enjoy Vanha Sydan Tab even more:

If you don't really know how to deal with "Absus4" chord and his equally confusing brothers, just put the mouse cursor over them and you will be shown a helpful chord diagram.

Show us your talent, perform Vanha Sydan Tab!

Here you can post a video or audio performance. Tell me more ...
Where can we find your performance? Tell me more ...
Your comment:
Please, log in to post your performance.