Artists by letter: A B C D E F G H I J K L M N O P Q R S T U V W X Y Z 0-9

 
Gabay Tab
Song: Gabay
Artist: Callalily
Album: Callalily

Tabbed by: Angelo Antojado a.k.a AngelZERO	
Email: angelo-olegna@hotmail.com or sa FB ^^

one great song from Callalily

di po ako 100% sure na perfect to... kayo na po bahala kumapa...

enjoy...

Tuning: STANDARD

CHORDS USED: Intro: Em-D-C-G-F#-Em
	     Verse/Refrain: Em-D-C
	     Chorus: G-D-Em-C
	     Intrumentsl: C-D
LEGEND:      * = Palm Mute
	     \ = Slide Down
	     / = Slide Up
	     b = Bend

Intro:

GUITAR 1
e|---------------------------------------------------------------------------|
B|---------------------------------------------------------------------------|
G|--9~----7~----5~-----------------------------------------------------------|
D|--9~----7~----5~-----5~----4~----2~----------------9999999999999*----------|
A|--7~----5~----3~-----5~----4~----2~---------------\7777777777777*----------|
E|---------------------3~----2~----0~----------------------------------------|

Chorus:

GUITAR 1

e|---------------------------------------------------------------------------|
B|---------------------------------------------------------------------------|
G|------------------7--77--7--777---9--99--9--999---5--55--5--555------------|
D|--5--55--5--555---7--77--7--777---9--99--9--999---5--55--5--555------------|
A|--5--55--5--555---5--55--5--555---7--77--7--777---3--33--3--333------------|
E|--3--33--3--333------------------------------------------------------------|

GUITAR 2

e|------------2---------------2---------------2---------------2--------------|
B|-------------2---------------2---------------2---------------2-------------|
G|--------------0---------------0---------------0---------------0------------|
D|---------------------------------------------------------------------------|
A|---------------------------------------------------------------------------|
E|---------------------------------------------------------------------------|

Verse 1

GUITAR 1

e|---------------------------------------------------------------------------|
B|---------------------------------------------------------------------------|
G|---------------------------------------------------------------------------|
D|--9999999999999*---7777777777777*---5555555555555555555555555*-------------|
A|--7777777777777*---5555555555555*---3333333333333333333333333*-------------|
E|---------------------------------------------------------------------------|

Refrain:

GUITAR 1

e|---------------------------------------------------------------------------|
B|---------------------------------------------------------------------------|
G|---------------------------------------------------------------------------|
D|--9999999999999*---7777777777777*--5555555555555555555555555*--------------|
A|--7777777777777*---5555555555555*--3333333333333333333333333*--------------|
E|---------------------------------------------------------------------------|

GUITAR 2

e|-----10-10-8-8-------------------------------------------------------------|
B|----------------8--10-----8-8-7-7------------8-8--10-10---8-8-7-7----------|
G|----------------------------------7-9----7-7----------------------7--------|
D|---------------------------------------------------------------------------|
A|---------------------------------------------------------------------------|
E|---------------------------------------------------------------------------|

GUITAR 1

e|---------------------------------------------------------------------------|
B|---------------------------------------------------------------------------|
G|--9~-------7~--------5~----------------------------------------------------|
D|--9~-------7~--------5~----------------------------------------------------|
A|--7~-------5~--------3~----------------------------------------------------|
E|---------------------------------------------------------------------------|

Chorus:

GUITAR 1

e|---------------------------------------------------------------------------|
B|---------------------------------------------------------------------------|
G|------------------7--77--7--777---9--99--9--999---5--55--5--555------------|
D|--5--55--5--555---7--77--7--777---9--99--9--999---5--55--5--555------------|
A|--5--55--5--555---5--55--5--555---7--77--7--777---3--33--3--333------------|
E|--3--33--3--333------------------------------------------------------------|

GUITAR 2

e|------------2---------------2---------------2---------------2--------------|
B|-------------2---------------2---------------2---------------2-------------|
G|--------------0---------------0---------------0---------------0------------|
D|---------------------------------------------------------------------------|
A|---------------------------------------------------------------------------|
E|---------------------------------------------------------------------------|

GUITAR 1

e|---------------------------------------------------------------------------|
B|---------------------------------------------------------------------------|
G|--------------------777777777777777---999999---777777---555555555555555----|
D|--555555555555555---777777777777777---999999---777777---555555555555555----|
A|--555555555555555---555555555555555---777777---555555---333333333333333----|
E|--333333333333333----------------------------------------------------------|

GUITAR 2

e|--555555555555555---555555555555555---777777---555555----------------------|
B|--888888888888888---333333333333333---555555---333333----------------------|
G|--------------------------------------------------------\555444555444555---|
D|---------------------------------------------------------------------------|
A|---------------------------------------------------------------------------|
E|---------------------------------------------------------------------------|

REPEAT INTRO AND VERSE pero add nyo to while playing the verse

GUITAR 2

e|---------------------------------------------------------------------------|
B|-------7-7----------7-7-----------7-7-----------7-7------------------------|
G|------------4-4----------4-4-----------4-4----------4-4--------------------|
D|---------------------------------------------------------------------------|
A|---------------------------------------------------------------------------|
E|---------------------------------------------------------------------------|

REPEAT REFRAIN THEN CHORUS ...yung last stanza ng chorus repeat 2x



INSTRUMENTAL: power chord na C at D lang...
              sa last chord ng chorus pasok agad ang lead tapos tuloy2x na

GUITAR 1

e|---------------------------------------------------------------------------|
B|---------------------------------------------------------------------------|
G|---------------------------------------------------------------------------| 4x hanggang
D|--55-5555555-----7777777777------------------------------------------------| matapos lead
A|--33-3333333-----5555555555------------------------------------------------|
E|---------------------------------------------------------------------------|

GUITAR 2

e|--33-------------------------------5---------------------------------------|
B|--33---8-7---------------------5h7---7-------------------------------------|
G|--00-------9-7-7h9-9-7--------------------------7--------------------------|
D|-----------------------7h9-7-------------(x)3\5-5---5/4--4\7/4\7/4\7-------|
A|---------------------------------------------------------------------------|
E|---------------------------------------------------------------------------|

e|-----------------\12-12-------------------------------------10-10----777---|
B|------------------------10-12-10-10h12p10-------------10-12-------12/888---|
G|------7---7-7h9---------------------------10h12--9-12----------------------|
D|--7h9---9------------------------------------------------------------------|
A|---------------------------------------------------------------------------|
E|---------------------------------------------------------------------------|

e|--7-8-10-7-----------------------------------------------------------------|
B|-----------88-8\10~-10~-10~-10~-10~-10~-10~-10~-10~-11b(tuloy lang)-/8-----|
G|---------------------------------------------------------------------------|
D|---------------------------------------------------------------------------|
A|---------------------------------------------------------------------------|
E|---------------------------------------------------------------------------|

REPEAT last stanza ng refrain 2x THEN CHORUS THEN END...^^

yun lang po salamat ^^...

************************************
 
 
Callalily - Gabay Tab :: indexed at Ultimate Guitar.
Gabay tabs @ 911Tabs

About the artist behind Gabay Tab:

Callalily is a Filipino pop-rock band, composed of Kean Cipriano (Vocals), Alden Acosta (Lead Guitar), Tatsi Jamnague (Rhythm Guitar), Aaron Ricafrente (Bass) and Lemuel Belaro (Drums).

Indexed at Wikipedia.

Show us your talent, perform Gabay Tab!

Here you can post a video or audio performance. Tell me more ...
Where can we find your performance? Tell me more ...
Your comment:
Please, log in to post your performance.