Artists by letter: A B C D E F G H I J K L M N O P Q R S T U V W X Y Z 0-9
 
Beauteen Tab
im pretty sure about this.
please tell me if theres something wrong.
leave a comment. and rate. :)

SCANDAL - BEAUTeen!!

Intro:
(Guitar 1)
e--------------------------------------------------|
B----------11/13-11-----------11/13-11-13/15-13-11-|
G----10-----------------10-------------------------|
D-12----12-----------12----12----------------------|
A--------------------------------------------------|
E--------------------------------------------------|

e-------------------------------|
B----------11/13-11-------------|
G----10--------------8/10-------|
D-12----12-----------------8/10-|
A-------------------------------|
E-------------------------------|

Verse:
(2x)
e|---------------------------|
B|---------------------------|
G|-3-------8---3---------8---|-(2x)
D|-3---3---8---3-----3---8---|
A|-1---3---6---1-----3---6---|
E|-----1-------------1-------|

e|---------------------------|
B|---------------------------|
G|---------8---7---5-----8---|
D|-5---3---8---7---5-----8---|
A|-5---3---6---5---3-----6---|
E|-3---1---------------------|

e|---------------------------|
B|---------------------------|
G|-6---9---------------------|
D|-6---9---4-----------------|
A|-4---7---4-----------------|
E|---------2-----------------|

Chorus:

e|----------------------------|
B|----------------------------|
G|-----8-------6------------8-|
D|-6---8---3---6---(2x)-----8-|(2x)
A|-6---6---3---4------------6-|
E|-4-------1------------------|

e|-------------------------------------| 
B|-------------------------------------|
G|-----4-------6-------4---6-9---4-----|
D|-6---4---6---6---6---4---6-9-4-4--6--|
A|-6---2---6---4---6---2---4-7-4-2--6--|
E|-4-------4-------4-----------2----4--|

Verse 2:

e|---------------------------|
B|---------------------------|
G|-3-------8---3---------8---|-(2x)
D|-3---3---8---3-----3---8---|
A|-1---3---6---1-----3---6---|
E|-----1-------------1-------|

e|---------------------------|
B|---------------------------|
G|---------8---7---5---------|
D|-5---3---8---7---5---------|
A|-5---3---6---5---3---------|
E|-3---1---------------------|

e|---------------------------|
B|---------------------------|
G|-6---9---------------------|
D|-6---9---4-----------------|
A|-4---7---4-----------------|
E|---------2-----------------|

Chorus II:

e|----------------------------|
B|----------------------------|
G|-----8-------6------------8-|
D|-6---8---3---6---(2x)-----8-|(2x)
A|-6---6---3---4------------6-|
E|-4-------1------------------|

e---------------------------------------------------------|
B----------11/13-11---2-1----------------------11/13-11---|
G----10-------------------3-1-0----------10---------------|
D-12----12----------------------3-1---12----12------------|
A---------------------------------------------------------|
E---------------------------------------------------------|

Bridge:

e|-----------------|
B|-----------------|
G|-4-----------9---|
D|-4---4---6---9---|
A|-2---4---6---7---|
E|-----2---4-------|

e|----------------|
B|-2-1------------|
G|-----3-1-0------|
D|-----------3-1--|
A|----------------|
E|----------------|

e|-----------------|
B|-----------------|
G|-4-----------9---|
D|-4---4---6---9---|
A|-2---4---6---7---|
E|-----2---4-------|

(repeat Chorus II )

Outro:

e|-------------------------------------| 
B|-------------------------------------|
G|-----4-------6-------4---6-9---4-----|
D|-6---4---6---6---6---4---6-9-4-4--6--|
A|-6---2---6---4---6---2---4-7-4-2--6--|
E|-4-------4-------4-----------2----4--|

Tablature player for this song:
 
 
Scandal - Beauteen Tab :: indexed at Ultimate Guitar.
Beauteen tabs @ 911Tabs
People who played Scandal - Beauteen Tab also played these songs by Scandal:
Shojo S Tab, Shunkan Sentimental Tab, Harukaze Chords, Doll Tab, Secret Base Chords, Goodbye To You Chords

Quick tip, so you can enjoy Beauteen Tab even more:

You might want to transpose the song if it is too high or too low for you to sing. Just click the desired option while playing a song and all the chords will automatically be transponded into a new key.

Show us your talent, perform Beauteen Tab!

Here you can post a video or audio performance. Tell me more ...
Where can we find your performance? Tell me more ...
Your comment:
Please, log in to post your performance.