Artists by letter: A B C D E F G H I J K L M N O P Q R S T U V W X Y Z 0-9
 
Bulerias Tab
(Capo at 3), Standard Tuning
I wouldn't pay attention to the note length given and stuff.. its pretty much off, but 
the basic tab.  I couldn't figure out how to tab out the intro too good but the rest 
be fine.  - ILLcoyote

                                                        ^ ^ ^ ^
     E  S  S S  S Q    T T T S  S  S X. X. X. S  S S  T T T T E  S S S
E||--------------------0--------L----0-----------L------0-0-0-0--0---0-|
B||----------------------1-L----L-------1--L-----L------1-1-1-1--1---1-|
G||-----2----2----2--------2----L----------2-----L-L----2-2-2-1--2-2-2-|
D||-----2----2----2-------------------------------------2-2-2-2--2-2-2-|
A||-----0h-3-0h-3-0----------0h-3p-0----------0h-3-0h-3-3-3-3-3--0-3-0-|
E||--x--x----x---------------------------------------------------------|


                          ^ ^ ^ ^                             ^ ^ ^ ^
  S S Q    Q    E  Q.     T T T Q    E.  S S S Q    E  Q.     T T T Q
--1-1--------------0------0-0-0-0----1---1-1-1---------0------0-0-0-0-|
--1-1------3----3--1------1-1-1-1----1---1-1-1-3----3--1------1-1-1-1-|
--2-2-1----1----1--2------2-2-2-1----2---2-2-2-1----1--2------2-2-2-1-|
------0----0----0--2------2-2-2-2--------------0----0--2------2-2-2-2-|
------2----2----2--0------0-0-0-0--------------2----2--0------0-0-0-0-|
----------------------------------------------------------------------|


                          ^ ^ ^ ^
  E  S S S Q    E  Q.     T T T Q    E  E  E  E  E  E  S S E  E.  T T
--L--1-1-1---------0------0-0-0-0----1-----------------0-0-0--0---0-0-|
--L--1-1-1-3----3--1------1-1-1-1----1--------0--------1-1-1--1---1-1-|
--L--2-2-2-1----1--2------2-2-2-1----2--------1--------2-2-2--2---2-2-|
-----------0----0--2------2-2-2-2-------------0--------2-2-2--2---2-2-|
-----------2----2--0------0-0-0-0-------------2-------------------0-0-|
----------------------------------------x--x-----x--x-----------------|


  S S S S S S S S S S S S S S S S S S S S Q    S  S S  S S S S  S S S
--------------------------0-0-0-0-0-0-0-0-0---------------------------|
--------------------------1-1-1-1-1-1-1-1-1----1p-0-1p-0--------------|
--------------------------2-2-2-2-2-2-2-2-2--------------2-0----------|
------------------0-------2-2-2-2-2-2-2-2-2------------------3p-2-0---|
----0---0---0-2-3---3-2-0-0-0-0-0-0-0-0-0-0-------------------------3-|
--5---5---5-----------------------------------------------------------|


                                                                  AN I
  S S S S S T. T. T. T. T. S E  S S S S S S T. T. T. S S E  S S S S
--------0---0--1h-3p-1p-0---------------0-1-0h-1p-0-------------------|
--3-2-3---3----------------3-1----0-1-3--------------3-1-0------------|
--------------------------------2-------------------------------------|
----------------------------------------------------------------------|
--------------------------------------------------------------0-2-3---|
------------------------------------------------------------4---------|


                             ^  ^  ^  ^                            ^ ^
  T. S S E  E  E  E  E  E  T T. T. T. Q    E  S S S Q    E  Q.     T T
---------------------0-------0--0--0--0----1--1-1-1---------0------0-0-|
---------------------1--1--L-1--1--1--1----1--1-1-1-3----3--1------1-1-|
---------------2--------2--L-2--2--2--2----2--2-2-2-1----1--2------2-2-|
---------------2-------------2--2--2--2-------------0----0--2------2-2-|
--L--0------x--0-------------0--0--0--0-------------2----2--0------0-0-|
-------3-1--L--L--0--L--L--L-------------------------------------------|


  E  E  E  E  S S E  E.  T T T Q    S E  T T T E.  E  T  T  T E  E  E
--------------0-0-0--0---0-0-0-0----L-0--5-5-5-5---5--3h-5p-3-0-------|
-----0--------1-1-1--1---1-1-1-1----L----------------------------3--1-|
-----1--------2-2-2--2---2-2-2-2----L---------------------------------|
-----0--------2-2-2--2---2-2-2-2----L---------------------------------|
-----2-------------------0-0-0-0----L---------------------------------|
--x-----x--x----------------------------------------------------------|


                    v    ^ ^ ^ ^                               ^ ^ ^ ^
  S. Q    Q    Q    E  T T T T Q    E  T T T T. E  E  S S Q    T T T T
--L--0--------------0--L-0-0-0-0-------------------------------0-0-0-0-|
----------3----1----1--L-1-1-1-1-------------------------------1-1-1-1-|
-----5--------------2--L-2-2-2-2----0--5-5-5-5--5--5--5--------0-0-0-0-|
----------4----2----2--L-2-2-2-2------------------------5------2-2-2-2-|
-------------------------0-0-0-0--------------------------3----3-3-3-3-|
-----------------------------------------------------------------------|


                                   ^  ^  ^ ^
  S S S S S S S S S S S S Q    S S T. T. T Q.     S  S S S S  S E.  S
-------------------------------0-0-0--0--0-0--------------------------|
--3-1-0------------------------1-1-1--1--1-1--------------------------|
--------2-0-2-0----------------2-2-2--2--2-2--------------------2---L-|
----------------3-2-0----------2-2-2--2--2-2-----------2---0h-2-------|
----------------------3-2-0--------0--0--0-0------0h-3---3------------|
----------------------------------------------------------------------|


  S S  S S S S  S Q    S. S  S S  S S S S. S S S S S  S S S S  S E.  S
--0--------------------0-------------------------0---------------------|
-----------------------------------------------1-----------------------|
---------------------------------------------2-------------------2-----|L
------------------0------------2p-0--------2------------2---0h-2-------|
---------2---0h-2---------2h-3------3-2-0--L-L-L-L-0h-3---3------------|
----0h-3---3-----------------------------------------------------------|


  S S S S S S S S S S S S S S S S S S E  E  E  S S S S S S S S S S S S
--------0-1-0----------------------------------------------------------|
--0-1-3-------3-1-0---0------------------1--1--------------------------|
--------------------2---2-0--------------2--2--------------------------|
----------------------------3-2-0--------2--2--2-3-2-0---------------0-|
----------------------------------3-2-0--L--L----------3-2-0---0-2-3---|
-------------------------------------------------------------4---------|


  S S S S S S S S S S S S S Q    E  S S E  E  E  E  E  E  E  E  E  E
---------------------------------1------------------0-----------0-----|
---------------------------------1---------0--------1-----0-----1-----|
------------0-2-0----------------2---------1--------2-----1-----2-----|
------0-2-3-------3-2-0--------------------0--------2-----0-----2-----|
--2-3-------------------3-2-0--------------2--------0-----2-----0-----|
------------------------------------x-x-x-----x--x-----x-----x-----x--|


                                                                  AND
                 ^ ^ ^ ^                             ^ ^ ^ ^
  E  E.  E   E.  T T T Q    E  S S E  Q    E  Q.     T T T Q.     S
---------1p--0---0-0-0-0----1--1-1-1----------0------0-0-0-0----------|
---------1---L---1-1-1-1----1--1-1-1--3----3--1------1-1-1-1----------|
---------2---L---2-2-2-2----2--2-2-2--1----1--2------2-2-2-2----------|
-----------------2-2-2-2--------------0----0--2------2-2-2-2----------|
-----------------0-0-0-0--------------2----2--0------0-0-0-0------0---|
-----x----------------------------------------------------------------|


  S H        T. T. T. T. T E  E  S  S  S. E  S  S  S S E  E  S S S S T
-----------------------------------------------------------------------|
-----------------------------------------------------------------------|
-----------------------------------------------------------------------|
-------------------0h-2p-0----0--3p-2p-0-----0h-2p-0-----------------0-|
--2-3--------2--3----------4--------------4----------3-2-----2-3-2-3---|
----------------------------------------------------------0------------|


                                                   ^ ^ ^ ^
  S  S S E  T. T. T. Q.     S S S S S S S S S Q    T T T E.  E.  S S S
---------------------------------------------------1-1-1-1---0---0-0-0-|
---------------------------------------------------1-1-1-1---1---1-1-1-|
---------------------------------------------------2-2-2-2---2---2-2-2-|
---------------------------------------------------2-2-2-2---2---2-2-2-|
--3p-0-2----------------------------2-4-5-4-2-0----0-0-0-0---0---0-0-0-|
---------4--4--4--4--4------0-2-4-5------------------------------------|


  ^ ^ ^ ^
  T T T Q    E  E  E  E  E  E  S Q    T T T Q    S E  S S Q    E  S S
--0-0-0-0----1-----------------0------0-0-0-0----L-0--0-0-0---------0-|
--1-1-1-1----1--------0--------1------1-1-1-1----L-1--1-1-1-------1---|
--2-2-2-2----2--------1--------2------2-2-2-2----L-2--2-2-2----2------|
--2-2-2-2-------------0--------2------2-2-2-2----L-2--2-2-2-----------|
--0-0-0-0-------------2---------------0-0-0-0----L--------------------|
----------------x--x-----x--x-----------------------------------------|


  S E  T. T. T. T. S S. Q    S S T. T E  T. T. T. E  E  E  E  Q    E
--------------------------------------0--1h-3p-1p-0-----------0----0--|
--L----------0h-1p-0-----------0-1--3----------------3--2--3----------|
----2--0h-2----------2-------2----------------------------------------|
----------------------------------------------------------------------|
------------------------0-----------L---------------------------------|
----------------------------------------------------------------------|


           ^  ^  ^  ^                                         ^  ^  ^
  E  E  E  T. T. T. Q    S S S S T. T. T. E  E  E  E  S  S E  T. T. T.
--1--1--0--0--0--0--0------------0h-1p-0----------------------0--0--0-|
--0--0--1--1--1--1--1------0-1-3----------3--2--3--2--0h-1----1--1--1-|
--0--0--0--0--0--0--0----2---------------------------------2--2--2--2-|
--------2--2--2--2--2-----------------------------------------2--2--2-|
--------3--3--3--3--3-----------------------------------------0--0--0-|
--3--3----------------------------------------------------------------|


            ^  ^  ^  ^
  E  E  E.  T. T. T. S E  E  T. T. T. E  E  E  T. T. T. E  E  T. T. T.
------------0--0--0--0----0--5--5--4--4--5--4--2h-4p-2p-0--------------|
------------1--1--1--1-------------------------------------3--1h-3p-1--|p
------------2--2--2--2-------------------------------------------------|
------------2--2--2--2-------------------------------------------------|
--2-----0---0--0--0--0-------------------------------------------------|
-----4-----------------------------------------------------------------|


                                              ^  ^  ^  ^
  E  E  Q    E  E  E  E  E  E  E  E  E  E  E  T. T. T. Q    S S S S T.
--------0----0--3--3--3--2--2--2--1--1--1--0--0--0--0--0------------0--|h
--2--3----------2--2--2--3--3--3--0--0--0--1--1--1--1--1------0-1-3----|
----------------3--3--3--2--2--2--0--0--0--0--0--0--0--0----2----------|
----------------2--2--2--0--0--0-----------2--2--2--2--2---------------|
-------------------------------------------3--3--3--3--3---------------|
----------------------------------3--3--3------------------------------|


             ^  ^  ^  ^                                       ^ v ^  ^
  E  S  S E  T. T. T. Q    S S S S T. T. T. S E  E  E  E  E.  T T S. T
-------------0--0--0--0---------------------------------------0-0-0--0-|
--2--0h-1----1--1--1--1---------------------------------------1-1-1--1-|
----------2--2--2--2--2---------------------------------------2-2-2--2-|
-------------2--2--2--2----------0-2h-3p-2p-0----0------------2-2-2--2-|
-------------0--0--0--0----0-2-3--------------4-----2-----0---0-0-0--0-|
-------------------------------------------------------4---------------|


                     ^  ^  ^  ^                           ^ v ^  ^  ^
  E  E  T. T. T. E.  T. T. T. T. E.  E  E  E  E  E  E  E  S S S. T. T.
-----0----------------------------------------0--1-----0--0-0-0--0--0-|
--3-----1h-3p-1p-0---3--3--3--3------0--1--3--------3-----1-1-1--1--1-|
---------------------1--1--1--1---------------------------2-2-2--2--2-|
---------------------0--0--0--0---------------------------2-2-2--2--2-|
---------------------2--2--2--2----------------------------------0--0-|
----------------------------------------------------------------------|


                    ^  ^  ^  ^
  S E  T. T. T. E.  T. T. T. T. E.  E  E  E  E  E  E  E  E  Q    E  E
--L------------------------------------------0--1-----0-----5----4----|
----3--1h-3p-1p-0---3--3--3--3------0--1--3--------3------------------|
--------------------1--1--1--1----------------------------------------|
--------------------0--0--0--0----------------------------------------|
--------------------2--2--2--2---------------------------0--L----L----|
--------------------------------------------------------------------0-|


                   ^ ^ ^ ^                      ^
  X. S. S  S E  X. T T T Q    E.  S S S Q    E  Q    E  T T T E.  X S
-------------------1-1-1-1----0---0-0-0---------0----0--0-0-0-0---L-0-|
--L--3--0h-1-------1-1-1-1----1---1-1-1-3-------1----1--1-1-1-1---L-1-|
-------------2--L--2-2-2-2----2---2-2-2-1----1--2----2--2-2-2-2---L-2-|
-------------------2-2-2-2----2---2-2-2-0----0--2----2--2-2-2-2---L-2-|
-------------------0-0-0-0----0---0-0-0-2----2--0-------0-0-0-0---L---|
----------------------------------------------------------------------|


  E  E  E  S  S E  E  E  S  S T T T H        E  S  S  Q    S  S  S S E
--0--5--4--7h-8-7--5--4--5s-7-7-7-7-7--------5--3h-5p-3----1h-3p-1---0-|
-------------------------------------------------------------------3---|
-----------------------------------------------------------------------|
-----------------------------------------------------------------------|
-----------------------------------------------------------------------|
-----------------------------------------------------------------------|


  E  E  E  S  S  E  E  E  S  S T T T Q.     E  S  S  Q    S  S  S S E.
--0--5--4--7s-8s-7--5--4--5s-7-7-7-7-7------5--3h-5p-3----1h-3p-1---0-|
------------------------------------------------------------------3---|
----------------------------------------------------------------------|
----------------------------------------------------------------------|
----------------------------------------------------------------------|
----------------------------------------------------------------------|


  T. T T S E  E  E  S  S  E  E  S  S S S S S S S S S S S  E  E  E  E
--0--0-0-0-5--5--3--1h-3p-1--0--0h-1-0---------------0-1p-0-----------|
---------------------------------------3-1-0---0-1-3---------3--2--3--|
----------------------------------------------------------------------|
----------------------------------------------------------------------|
----------------------------------------------------------------------|
----------------------------------------------------------------------|


  ^
  Q    E  T. T. T. T. E  T. T. T. Q      E  E  T. T. T. E  E  E  E  S
-------0--1h-3p-1p-0-----1h-3p-1p-0------------0--1--0-----------------|
--3-------------------3---------------------1-----------3--2--3--2--0--|h
--2------------------------------------2g2-----------------------------|
--3--------------------------------------------------------------------|
--2--------------------------------------------------------------------|
-----------------------------------------------------------------------|


                                   ^  v  ^  v  ^  v  ^  ^  ^   ^  v  ^
  S S S S S S S S S S S S S S S E  T. T. T. T. T. T. T. E  E.  T. T. T
--0-0-0-1-1-1-1-0-0-1-1-0-0-1-1-0--0--0--0--0--0--0--0--0--0---1--1--1-|
--3-3-3-3-3-3-3-3-3-3-3-3-3-3-3-3--1--1--1--1--1--1--1--1--1---1--1--1-|
--1-1-1-1-1-1-1-1-1-1-1-1-1-1-1-1--2--2--2--2--2--2--2--2--2---2--2--2-|
--0-0-0-0-0-0-0-0-0-0-0-0-0-0-0-0--2--2--2--2--2--2--2--2--2---3--3--3-|
--2-2-2-2-2-2-2-2-2-2-2-2-2-2-2-2--0--0--0--0--0--0--0--0--0-----------|
-----------------------------------------------------------------------|


  ^  v  ^  v  ^  v  ^
  T. T. T. T. T. T. E  W.               W                S.
------------------------------------------------------------||
--0--0--0--0--0--1--1---------------------------------------||
--1--1--1--1--1--2--2---------------------------------------||
--0--0--0--0--0--2--2---------------------------------------||
--2--2--2--2--2--0--0---------------------------------------||
------------------------------------------------------------||


Duration Legend
---------------
W - whole
H - half
Q - quarter
E - 8th
S - 16th
T - 32nd
X - 64th
. - note dotted
|-n-|  - n-tuplets


Tablature Legend
----------------
L - tied note
x - dead note
g - grace note
(n) - ghost note
> - accentuded note
NH - natural harmonic
AH - artificial harmonic
TH - tapped harmonic
SH - semi harmonic
PH - pitch harmonic
h - hammer on
p - pull off
b - bend
br - bendRelease
pb - preBend
pbr - preBendRelease
brb - bendReleaseBend
\n/ - tremolo bar dip
\n - tremolo bar dive
-/n - tremolo bar Release up
/n\ - tremolo bar inverted dip
/n - tremolo bar return
-\n - tremolo bar Release down
S - shift slide
s - legato slide
/ -  slide into from below or out of upwards
\ -  slide into from above or out of downwards
~ - vibrato
W - wide vibrato
tr - trill
TP - tremolo picking
T - tapping
S - slap
P - pop
< - fade in
^ - brush up
v - brush down
Tablature player for this song:
 
 
Sabicas - Bulerias Tab :: indexed at Ultimate Guitar.
Bulerias tabs @ 911Tabs
People who played Sabicas - Bulerias Tab also played these songs by Sabicas:
Malaguena Tab, Danza Arabe Tab

Quick tip, so you can enjoy Bulerias Tab even more:

You might want to transpose the song if it is too high or too low for you to sing. Just click the desired option while playing a song and all the chords will automatically be transponded into a new key.

Show us your talent, perform Bulerias Tab!

Here you can post a video or audio performance. Tell me more ...
Where can we find your performance? Tell me more ...
Your comment:
Please, log in to post your performance.