Artists by letter: A B C D E F G H I J K L M N O P Q R S T U V W X Y Z 0-9
 
Ordinary Girl Tab
Song: Ordinary Girl
Band: Rebelution
Album: Courage To Grow

beautiful song, no distortion neccesary..
support Rebelution and Drum Major Instinct!

Rhythm
e|------7----7----5----5----9----9----7----7-|
B|------9----9----5----5----9----9----7----7-|
G|------9----9----6----6----9----9----8----8-|
D|------9----9----7----7---11---11----9----9-|
A|------7----7----7----7---11---11----9----9-|
E|----------------5----5----9----9----7----7-|
        E         A         C#        B

Melody
e|-----0--0------0-----0-|
B|------0-------0-----4--|
G|---1---1---1/2---2/4---|
D|-----------------------|
A|-----------------------|
E|-----------------------|


e|-------------------------------------------|
B|-------------------------------------------|
G|-------------------------------------------|
D|-----------6-9-------------------------6---|
A|---7-7-7-7--------------4-7----------7-----|
E|----------------5-5-5-5------9-9-9-9-----7-|
	this is palm muted by lead guitar
after first verse, after first chorus, and during last chorus


Bridge
e|---5----5----5----5----9----9----9----9-|
B|---5----5----5----5----9----9----9----9-|
G|---6----6----6----6----9----9----9----9-|
D|---7----7----7----7---11---11---11---11-|
A|---7----7----7----7---11---11---11---11-|
E|---5----5----5----5----9----9----9----9-|
     A                   C#


e|---5----5----5----5----9----9----7----7-|
B|---5----5----5----5----9----9----7----7-|
G|---6----6----6----6----9----9----8----8-|
D|---7----7----7----7---11---11----9----9-|
A|---7----7----7----7---11---11----9----9-|
E|---5----5----5----5----9----9----7----7-|
     A                   C#        D


e|---5----5----5----5----9----9----9----9-|
B|---5----5----5----5----9----9----9----9-|
G|---6----6----6----6----9----9----9----9-|
D|---7----7----7----7---11---11---11---11-|
A|---7----7----7----7---11---11---11---11-|
E|---5----5----5----5----9----9----9----9-|
     A                   C#


e|---5----5----5----5----7----7----7----7----7----7----7----7-|
B|---5----5----5----5----7----7----7----7----7----7----7----7-|
G|---6----6----6----6----8----8----8----8----8----8----8----8-|
D|---7----7----7----7----9----9----9----9----9----9----9----9-|
A|---7----7----7----7----9----9----9----9----9----9----9----9-|
E|---5----5----5----5----7----7----7----7----7----7----7----7-|
     A                   D

Girl I'm going crazy, I can't get you off my mind
Seems like the only thing that I think about is you all the time
I have no words to express the way I feel about you
I've found my heart's desire, baby it's you
You give me everything that I want, you give me more than I need
What's a guy to give a girl who seems to have everything
Too much time is never enough time to be spent with you
Oh yes, oh yes, oh yes it's true

[Chorus]
You're no ordinary girl, you always speak your mind
You're no ordinary girl, you're one of a kind
You're no ordinary girl, I can see it in your eyes
You're no ordinary girl, oh yeah that's right

I've been around here for a while and yes I've seen some things
But nothing even comes close to the love that you bring
You know exactly who you are, you know just who you want to be
I can't believe this love is happening to me

[Bridge]
So much fear to face to get me where I am
It's clear for me to see this was never my plan
Here we are now girl, just me and you
Loving every minute that I spend with you


Tabbed by: Coren cpappu@hotmail.com
Tablature player for this song:
 
 
Rebelution - Ordinary Girl Tab :: indexed at Ultimate Guitar.
Ordinary Girl tabs @ 911Tabs

Quick tip, so you can enjoy Ordinary Girl Tab even more:

After the registration (which takes just 10 seconds, remember?) you will be able to use your profile - your very own piece of YourChords.com.

Show us your talent, perform Ordinary Girl Tab!

Here you can post a video or audio performance. Tell me more ...
Where can we find your performance? Tell me more ...
Your comment:
Please, log in to post your performance.