Artists by letter: A B C D E F G H I J K L M N O P Q R S T U V W X Y Z 0-9

 
1nation - Flames Within Tab
               Intro (light)

e|0--0--0--0--3--3--2--2--------------------|
b|-1--1--1--1--3--3--2--2--2--2--2--2---4~~~|
g|--2--2--2--2--2--2--2--2--2--2--2--2--4~~~|
d|---------------------------2--2--2--2-2~~~|
A|------------------------------------------|
D|------------------------------------------|


               Intro (heavy)

e|----------------------------------------------------------------|
b|----------------------------------------------------------------|
g|----------------------------------------------------------------|
d|5-3-1-0---------5-3-1-0---------5-3-1-0---------5-3-1-7---------|
A|5-3-1-0--00000--5-3-1-0--00000--5-3-1-0--00000--5-3-1-7--00000--|
D|5-3-1-0--00000--5-3-1-0--00000--5-3-1-0--00000--5-3-1-7--00000--|


              Verse

e|--------------------------------------------------------|
b|--------------------------------------------------------|
g|--------------------------------------------------------|
d|5--050-88888888-5--050-66666666-5--050-88888888-5--0507~|
A|5--050----------5--050----------5--050----------5--0507~|
D|5--050----------5--050----------5--050----------5--0507~|


             Chorus                                  This is start of
                                                     bridge 2nd time around.
e|-----------------------------------------------------|------------|
b|-----------------------------------------------------|------------|
g|-----------------------------------------------------|------------|
d|5--050-0-0-0-0-5--050-0-0-0-0-5--050-0-0-0-0-5--0507~|8~~~9~~~3~~~|
A|5--050-0-0-0-0-5--050-0-0-0-0-5--050-0-0-0-0-5--0507~|8~~~9~~~3~~~|
D|5--050-0-0-0-0-5--050-0-0-0-0-5--050-0-0-0-0-5--0507~|8~~~9~~~3~~~|
         . . . .        . . . .        . . . .


             Bridge

e|-------------------------------------|
b|-------------------------------------|
g|-------------------------------------|
d|8~~~9~~~0~~~8~~~9~~~3~~~8~~~9~~~11~~~|
A|8~~~9~~~0~~~8~~~9~~~3~~~8~~~9~~~11~~~|
D|8~~~9~~~0~~~8~~~9~~~3~~~8~~~9~~~11~~~|


            Solo(part 1)

e|-------------------------------------------------|
b|12-14-15-17-15-14-12-11-12-14-15-17-15-14-12-11~~| (x2)
g|-------------------------------------------------|
d|-------------------------------------------------|
A|-------------------------------------------------|
D|-------------------------------------------------|


            Solo(part 2) All Trembolo picking

e|----------------------------------------|
b|13-12---13-12-15-12-17-12-15-12-13-12---|
g|----------------------------------------|
d|----------------------------------------|
A|----------------------------------------|
D|----------------------------------------|



          Breakdown                                Key
      :Intro(light) x2                        ~  let ring out
      :Intro(heavy) x2                        .  palm mute
      :Verse x2
      :Chorus x2
      :Verse x2
      :Chorus x2
      :Bridge x2
      :Solo part 1 x2
      :Solo part 2 x4
      :Bridge x2
      :Chorus x2
      :Chorus(just vocals)
 
 
Misc Unsigned Bands - 1nation - Flames Within Tab :: indexed at Ultimate Guitar.
1nation - Flames Within tabs @ 911Tabs

Quick tip, so you can enjoy 1nation - Flames Within Tab even more:

If you don't really know how to deal with "Absus4" chord and his equally confusing brothers, just put the mouse cursor over them and you will be shown a helpful chord diagram.

Show us your talent, perform 1nation - Flames Within Tab!

Here you can post a video or audio performance. Tell me more ...
Where can we find your performance? Tell me more ...
Your comment:
Please, log in to post your performance.