Artists by letter: A B C D E F G H I J K L M N O P Q R S T U V W X Y Z 0-9
 
14 Hari Tab
               Kangen Band - Bintang 14 Hari                


                           
     W                                                H        T S S S E  E  T  
E||------------------------------------------------|-------------------0-------|
B||------------------------------------------------|----------------------3----|
G||------------------------------------------------|-----------------2---------|
D||------------------------------------------------|-------------0-------------|
A||------------------------------------------------|---------------0---------0-|
E||------------------------------------------------|---------------------------|


  T Q.     S. S S S E  E  T T    H        S S S E  E  T T  
--------------------2---------|--0--------------0---------|
----3------L------0----3------|--0-----------------3------|
----2------L------------------|---------------2-----------|
--0-------------0-----------0-|-----------0-------------0-|
------------------------------|-------------0---------0---|
--------------3-----------3---|---------------------------|


  Q.     T S T H           H        S S S E  E.     S S S E  E.  S S S E  E.   
---------------0--------|--L--------------2------|--------3------------0------|
--3------L-----2--------|--L-----------------3---|------0----3------------2---|
--2------L-----2--------|--L------------2--------|-------------------2--------|
-------------2----------|-----------0------------|----0------------2----------|
-------------0----------|-------------0----------|---------------0------------|
------------------------|------------------------|--3-------------------------|

                                      D             G              A 
                                       Empat Belas Hari Kumencari 

  S S S E  E.  S S S E  E.     S S S E  E  S S S S E  E  S  
--------2------------2------|--------3-------------0-------|
-----------3------------3---|------0----3--0----------2----|
------2------------2--------|--------------------2-------2-|
--0------------0------------|----0-------------2-----------|
----0------------0----------|----------------0-------------|
----------------------------|--3---------------------------|

    D           D               G               A 
   Dirimu       Untuk Menanyakan            Dimanakah 


  S S S E  E.  S S S E  E  S    S S S E  S S S S S S E  E  S  
--------2------------2-------|--------3--------------0-------|
-----------3------------3----|------0----3---0----------2----|
------2------------2-------2-|-------------0-------2-------2-|
--0------------0-------------|----0--------------2-----------|
----0------------0-----------|-----------------0-------------|
-----------------------------|--3----------------------------|

      D            D            G                 A 
  Dirimu          Empat Belas Hari             ku Datangi 


  S S S E  E  S S S S E  E  S    S S S E  S S S S S S E  E  S  
--------2-------------2-------|--------3--------------0-------|
-----------3-------------3----|------0----3---0----------2----|
------2-------2-----2-------2-|-------------0-------2-------2-|
--0-------------0-------------|----0--------------2-----------|
----0-------------0-----------|-----------------0-------------|
------------------------------|--3----------------------------|

      D               D              G             A 
   Rumahmu        Agar Engkau Tahu              Tertatih ku 


  S S S E  E  S S S S E  E  S    S S S E  E  S S S S E  E  S  
--------2-------------2-------|--------3-------------0-------|
-----------3-------------3----|------0----3--0----------2----|
------2-------2-----2-------2-|--------------------2-------2-|
--0-------------0-------------|----0-------------2-----------|
----0-------------0-----------|----------------0-------------|
------------------------------|--3---------------------------|

       D               D            G              A 
      Menunggumu                    aku        Kangen Sama


  S S S E  E  S S S S E  E  S    S S S E  E  S S S S E  E  S  
--------2-------------2-------|--------3-------------0-------|
-----------3-------------3----|------0----3--0----------2----|
------2-------2-----2-------2-|--------------------2-------2-|
--0-------------0-------------|----0-------------2-----------|
----0-------------0-----------|----------------0-------------|
------------------------------|--3---------------------------|

    D                D             G            A 
 Kamu                          Apa Kamu     Udah Gak Sayang 


  S S S E  E  S T Q.     S.    
--------2---------2------L--|
-----------3----3-----------|
------2-------2-------------|
--0---------------0------L--|
----0-----------0-----------|
----------------------------|

      D 
     Aku

 
D G A D
Maafkan Lah aku Lari Dari Kenyataan
D G A D
Bukan Karna aku Tak Punyai Rasa Sayang
D G A D
Maafkan Lah aku Mencoba Tuk Berlari
D G A D
Karna Suatu Nanti Engkau Pasti Kan Mengerti

G A D
Kamu Pacar Terbaikku
G A D
Walau Hanya Sekejab Di Hati
 
D A Em Bm
Mengapa Hanya Sekejab Saja
D A
Kumerasakan Indahnya
Em Bm
Dengan Dirimu
D A Em Bm
Mengapa Hanya Untaian Kata
D A
Kurasa Tiada Sempurna
Em Bm
Cerita Cinta Kita

SOLO

  H        S Q    E.     T T Q.     S. T E  E  E  S  
------------------0---|--L---0------L----0--2--3--5-|
-------------3--------|-----------------------------|
----------------------|-----------------------------|
----------------------|-----------------------------|
----------------------|-----------------------------|
----------------------|-----------------------------|


  S T T T T Q    S. T Q    E.     Q    S Q.     S S  S  S  S  
--L-2-3---0-2----L---------0---|--L----L-2------6-7-14-------|
----------------------3--------|-----------------------12-11-|
-------------------------------|-----------------------------|
-------------------------------|-----------------------------|
-------------------------------|-----------------------------|
-------------------------------|-----------------------------|


  H        S  Q     E.     T  T  Q.     S. T  E   E   E   S  
-------------10----12---|--L-10-12------L----12--14--15--17-|
--L--------L------------|-----------------------------------|
------------------------|-----------------------------------|
------------------------|-----------------------------------|
------------------------|-----------------------------------|
------------------------|-----------------------------------|


  S  T  T T  T  Q    S. T  Q     E.     T  T  Q     Q    S. T  S  S  S  S  S  
--L-14-15---12-14----L----------12---|--L-10-12----14----L----14-12-10----12-|
--------------------------15---------|---------------------------------10----|
-------------------------------------|---------------------------------------|
-------------------------------------|---------------------------------------|
-------------------------------------|---------------------------------------|
-------------------------------------|---------------------------------------|


   S Q.      S S T  Q.     T    E  T H        Q    S T    W                 
--10-9------10-9---10------L-|--L--L-------------------|-------------------|
-----------------------------|-------------------------|-------------------|
-----------------------------|-------------------------|-------------------|
-----------------------------|-------------------------|-------------------|
-----------------------------|-------------------------|-------------------|
-----------------------------|-------------------------|-------------------|






Duration Legend
---------------
W - whole
H - half
Q - quarter
E - 8th
S - 16th
T - 32nd
X - 64th
. - note dotted
|-n-|  - n-tuplets


Tablature Legend
----------------
L - tied note
x - dead note
g - grace note
(n) - ghost note
> - accentuded note
NH - natural harmonic
AH - artificial harmonic
TH - tapped harmonic
SH - semi harmonic
PH - pitch harmonic
h - hammer on
p - pull off
b - bend
br - bendRelease
pb - preBend
pbr - preBendRelease
brb - bendReleaseBend
\n/ - tremolo bar dip
\n - tremolo bar dive
-/n - tremolo bar Release up
/n\ - tremolo bar inverted dip
/n - tremolo bar return
-\n - tremolo bar Release down
S - shift slide
s - legato slide
/ -  slide into from below or out of upwards
\ -  slide into from above or out of downwards
~ - vibrato
W - wide vibrato
tr - trill
TP - tremolo picking
T - tapping
S - slap
P - pop
< - fade in
^ - brush up
v - brush down



Tablature player for this song:
 
 
Kangen Band - 14 Hari Tab :: indexed at Ultimate Guitar.
14 Hari tabs @ 911Tabs
People who played Kangen Band - 14 Hari Tab also played these songs by Kangen Band:
Kembali Pulang Chords, Tentang Aku Kau Dan Dia Usai Sudah Chords, Selingkuh Chords

Quick tip, so you can enjoy 14 Hari Tab even more:

After the registration (which takes just 10 seconds, remember?) you will be able to use your profile - your very own piece of YourChords.com.

Show us your talent, perform 14 Hari Tab!

Here you can post a video or audio performance. Tell me more ...
Where can we find your performance? Tell me more ...
Your comment:
Please, log in to post your performance.