Artists by letter: A B C D E F G H I J K L M N O P Q R S T U V W X Y Z 0-9
 
Cannon Rock Tab
this is my first tab and i'm pretty sure the notes r rite. u might wan 2 play it with the song
this is about from the beginning to 1 minute and 30 seconds into the song

e--14--12--10--9------------------10--12--14--12--15--14--12--10--12--10--9-----17-----|
b-----------------12--10--12--14---------------------------------------------------15--|
g--------------------------------------------------------------------------------------|
D--------------------------------------------------------------------------------------|
A -------------------------------------------------------------------------------------|
E -------------------------------------------------------------------------------------|


e-15--14--15--14--12--15--14-14--12--10----------------10--9-------------|
b-------------------------------------------12--10--8--------------------|
g------------------------------------------------------------------------|
D------------------------------------------------------------------------|
A -----------------------------------------------------------------------|
E -----------------------------------------------------------------------|


e---------------------------------------------------------------------------------------|
b---------------------------------------------------------------------------------------|
g--7----7-----7-------------------------------------------------------------------------|
D--7----7-----7----5--4---2----2----2----2---4---4---4---4------------------------------|
A -5---5-----5-------------0----0----0------------2---2---2---4--5---4--4--4------------|
E --------------------------------------------------------------------2--2--2---0--2----|


e--------------------------------------------7----------------------------------------------|
b-----------------------------------------------7--3----------------------------------------|
g-----------------------------------------------------4-------------------------------------|
D----------------------------7---7---7------------------------------------------------------|
A --5---5---5--5----2---------5---5---5--------------------5--2--4--5--4---7----------------|
E ---3---3---3--3-------------------------------------------3---------------5--7--9--10--9--|


e--------------------------------------------------------------------------------------|
b--------------------------------------------------------------------------------------|
g--7----7-----7------------------------------------------------------------------------|
D--7----7-----7----5--4---2----2----2----2---4---4---4---4-----------------------------|
A -5---5-----5-------------0----0----0------------2---2---2---4--5---4--4--4-----------|
E --------------------------------------------------------------------2--2--2---0--2---|


e--------------------------------------------7---------------------------------------|
b-----------------------------------------------7--3---------------------------------|
g-----------------------------------------------------4------------------------------|
D----------------------------7---7---7-----------------------------------------------|
A --5---5---5--5----2---------5---5---5--------------------5--2--4--5--4---7---------|
E --3---3---3--3-------------------------------------------3---------------5----4 
Tablature player for this song:
 
 
Johann Pachelbel - Cannon Rock Tab :: indexed at Ultimate Guitar.
Cannon Rock tabs @ 911Tabs
People who played Johann Pachelbel - Cannon Rock Tab also played these songs by Johann Pachelbel:
Canon In D Chords, Canon Acoustic Tab, Canon In D Major Tab, Pachelbel Canon Chords, Pachelbels Canon Chords, Canon In D Tab

Quick tip, so you can enjoy Cannon Rock Tab even more:

YourChords.com Guitar Chords and Tabs Archive is currently indexing over 240'000 songs from 21'000+ different artists. And new chords just keep on coming in, so you will surely never run out of them.

Show us your talent, perform Cannon Rock Tab!

Here you can post a video or audio performance. Tell me more ...
Where can we find your performance? Tell me more ...
Your comment:
Please, log in to post your performance.