Artists by letter: A B C D E F G H I J K L M N O P Q R S T U V W X Y Z 0-9
 
Love Vigilantes Tab
Title: Love Vigilantes
Artist: Iron and Wine
Album: 
Author: Shacamin

This is the tabs to the cover of Love Vigilantes. It's a pretty easy song. Capo 3, 
all tabs are relative to capo.

Tabbed with TuxGuitar.

E|-----------------3------------|--------------3------------|--------------3-------------|
B|-----0h1----------------------|-1-------------------------|-----1----------------------|
G|----------------------0-------|------0------------0-------|-------------------0--------|
D|-------------2------------2---|----------2------------2---|----------2-------------2---|
A|-----3------------------------|---------------------------|-----3----------------------|
E|------------------------------|---------------------------|----------------------------|


E|--------------3------------|---------------------------|----------------------------|
B|-1-------------------------|--------------0------------|--------------0-------------|
G|------0------------0-------|-----0---------------------|-0-----------------0--------|
D|----------2------------2---|-------------------0-------|------0----------------0----|
A|---------------------------|----------3------------3---|----------3-----------------|
E|---------------------------|-----1---------------------|----------------------------|


E|--------------3------------|-3-------------------------|--------------3-------------|
B|---------------------------|--------------3------------|-----1----------------------|
G|-----0-------------0-------|------0------------0-------|-------------------0--------|
D|-----------------------0---|----------0------------0---|----------2------------2----|
A|----------2----------------|---------------------------|-----3----------------------|
E|-----3---------------------|---------------------------|----------------------------|


E|--------------3------------|-----------------3------------|--------------3-------------|
B|-1-------------------------|-----0h1----------------------|-1--------------------------|
G|------0------------0-------|----------------------0-------|------0------------0--------|
D|----------2------------2---|-------------2------------2---|----------2-------------2---|
A|---------------------------|-----3------------------------|----------------------------|
E|---------------------------|------------------------------|----------------------------|
Tablature player for this song:
 
 
Iron And Wine - Love Vigilantes Tab :: indexed at Ultimate Guitar.
Love Vigilantes tabs @ 911Tabs

Quick tip, so you can enjoy Love Vigilantes Tab even more:

YourChords.com Guitar Chords and Tabs Archive is currently indexing over 240'000 songs from 21'000+ different artists. And new chords just keep on coming in, so you will surely never run out of them.

Show us your talent, perform Love Vigilantes Tab!

Here you can post a video or audio performance. Tell me more ...
Where can we find your performance? Tell me more ...
Your comment:
Please, log in to post your performance.