Artists by letter: A B C D E F G H I J K L M N O P Q R S T U V W X Y Z 0-9
 
Mack The Knife Tab
Mack The Knife

Arranged by Tony Crowley  MIDI/Mp3 from crowley@macace.net

 |       |       |       |        | A6    |       |       |        
|------------------------0-------|2---------------2---------------|
|----------------2---------------|2---------------2---------------|
|--------------------------------|2---------------2---------------|
|--------------------------------|2---------------2---1/--2-------|
|--------------------------------|0---------------0---------------|
|--------------------------------|--------------------------------|
 
 |       |       |       |        | E9    |       |       |        
|------------------------0-------|--------------------------------|
|----------------2---------------|7---------------7---------------|
|--------------------------------|7---------------7---------------|
|--------------------------------|6---------------6---------------|
|0-------------------------------|7---------------7---1/--2-------|
|--------------------------------|--------------------------------|
 
 |       |       |       |        | E9    |       |       |        
|--------------------------------|--------------------------------|
|----------------0-------3-------|7---------------7---------------|
|--------------------------------|7---------------7---------------|
|--------------------------------|6---------------6---------------|
|--------------------------------|7---------------7---------------|
|0-------------------------------|--------------------------------|
 
 |       |   E7sus4    E7|        | A6    |       |       |        
|----------------5-------4-------|2-------------------------------|
|----------------3-------3-------|2-------------------------------|
|----------------4-------4-------|2-------------------------------|
|----------------2-------2-------|2-------------------------------|
|--------------------------------|0-------------------------------|
|--------------------------------|--------------------------------|
 
 |       |       |       |        | A6+9  |       | A6    |        
|--------------------0h--4-------|7---------------5---------------|
|------------1/--2---------------|7---------------7---------------|
|--------------------------------|6---------------6---------------|
|--------------------------------|7---------------7---------------|
|--------------------------------|--------------------------------|
|--------------------------------|--------------------------------|
 
 |       | A6    | AM9   | A6     | Bm7   |       |       |        
|--------5-------4-------2-------|5-------------------------------|
|--------7-------2-------2-------|3-------------------------------|
|--------6-------2-------2-------|4-----------------------2-------|
|--------7-------2-------2-------|4-------------------4-----------|
|--------------------------------|----------------2---------------|
|--------------------------------|--------------------------------|
 
 |       |       | Bm    |        | Bm7   |       |       |        
|--------------------------------|5---------------5---------------|
|3-----------------------3-------|3---------------3---------------|
|2---------------4---------------|2---------------2---------------|
|4---------------4---------------|4---------------4---------------|
|2---------------2---------------|2---------------2---------------|
|--------------------------------|--------------------------------|
 
 |   E7sus4      |     E7|        | A6    |       |       |        
|--------5-------5-------4-------|2-------------------------------|
|--------3-------3-------3-------|2-------------------------------|
|--------4-------4-------4-------|2-------------------------------|
|2-------2-------2-------2-------|2-------------------------------|
|--------2-------2-------2-------|0-------------------------------|
|--------------------------------|--------------------------------|
 
 |       |       |       |        | A6    |       |       |        
|------------------------0-------|2---------------2---------------|
|----------------2---------------|2---------------2---------------|
|--------------------------------|2---------------2---------------|
|--------------------------------|2---------------2---1/--2-------|
|--------------------------------|0---------------0---------------|
|--------------------------------|--------------------------------|
 
 |       |       |       |        | E9    |       |       |        
|------------------------0-------|--------------------------------|
|----------------2---------------|7---------------7---------------|
|--------------------------------|7---------------7---------------|
|--------------------------------|6---------------6---------------|
|0-------------------------------|7---------------7---1/--2-------|
|--------------------------------|--------------------------------|
 
 |       |       |       |        | E9    |       |       |        
|--------------------------------|--------------------------------|
|----------------0-------3-------|7---------------7---------------|
|--------------------------------|7---------------7---------------|
|--------------------------------|6---------------6---------------|
|--------------------------------|7---------------7---------------|
|0-------------------------------|--------------------------------|
 
 |       |     E7sus4  E7|        | A6    |       |       |        
|----------------5-------4-------|2-------------------------------|
|----------------3-------3-------|2-------------------------------|
|----------------4-------4-------|2-------------------------------|
|----------------2-------2-------|2-------------------------------|
|--------------------------------|0-------------------------------|
|--------------------------------|--------------------------------|
 
 |       |       |       |        | A6+9  |       | A6    |        
|--------------------0h--4-------|7---------------5---------------|
|------------1/--2---------------|7---------------7---------------|
|--------------------------------|6---------------6---------------|
|--------------------------------|7---------------7---------------|
|--------------------------------|--------------------------------|
|--------------------------------|--------------------------------|
 
 |       | A6    | AM9   | A6     | Bm7   |       |       |        
|--------5-------4-------2-------|5-------------------------------|
|--------7-------2-------2-------|3-------------------------------|
|--------6-------2-------2-------|4-----------------------2-------|
|--------7-------2-------2-------|4-------------------4-----------|
|--------------------------------|----------------2---------------|
|--------------------------------|--------------------------------|
 
 |       |       |       |        | Bm7   |       |       |        
|----------------2-------2-------|5---------------2---------------|
|3---------------3-------3-------|3---------------3---------------|
|2---------------2-------2-------|2---------------2---------------|
|4---------------4-------4-------|4---------------4---------------|
|2---------------2-------2-------|2---------------2---------------|
|--------------------------------|--------------------------------|
 
 | DM13  |       | E13   |        | A     |       |       |        
|9---------------9---------------|5-------------------------------|
|7---------------9---------------|5-------------------------------|
|7---------------7---------------|6-------------------------------|
|9---------------6---------------|7-------------------------------|
|7---------------7---------------|7-------------------------------|
|--------------------------------|5-------------------------------|
 
 |   A#7 |       | A6    |        
|--------4-------2---------------|
|--------3-------2---------------|
|--------3-------2---------------|
|--------3-------2---------------|
|----------------0---------------|
|--------------------------------|
Tablature player for this song:
 
 
Frank Sinatra - Mack The Knife Tab :: indexed at Ultimate Guitar.
Mack The Knife tabs @ 911Tabs

Quick tip, so you can enjoy Mack The Knife Tab even more:

Try out the AutoScroller option ... It scrolls the page for you, so you can totally focus on nailing that solo. You can choose among different speeds using your mouse or your keyboard (keys 0, 1, 2 and 3).

Show us your talent, perform Mack The Knife Tab!

Here you can post a video or audio performance. Tell me more ...
Where can we find your performance? Tell me more ...
Your comment:
Please, log in to post your performance.