Artists by letter: A B C D E F G H I J K L M N O P Q R S T U V W X Y Z 0-9
 
Close To Me Tab
Part 1

e-2--0---------2--0------------7--6--2---6--2--------------|
B-------4------------4-------------------------2-----------|
G----------4------------4----------------------------------|
D----------------------------------------------------------|
A----------------------------------------------------------|
E----------------------------------------------------------|

Part 2

e----------------------7--9--11---7--9--11-----------------|
B-5--7--9---5--7--9----------------------------------------|
G----------------------------------------------------------|
D----------------------------------------------------------|
A----------------------------------------------------------|
E----------------------------------------------------------|
Tablature player for this song:
 
 
Cure - Close To Me Tab :: indexed at Ultimate Guitar.
Close To Me tabs @ 911Tabs

About the artist behind Close To Me Tab:

The Cure are an English rock band that formed in Crawley, Sussex in 1976. The band have experienced several lineup changes, with frontman, guitarist and main songwriter Robert Smith—known for his iconic wild hair, pale complexion, smudged lipstick and frequently gloomy and introspective lyrics—being the only constant member.

The members of The Cure first started releasing music in the late 1970s. Their first album, Three Imaginary Boys (1979), and early singles placed them as part of the post-punk and New Wave movements that had sprung up in the wake of the punk rock revolution in the United Kingdom. During the early 1980s the band's increasingly dark and tormented music helped form the gothic rock genre. After the release of 1982's Pornography, the band's future was uncertain and frontman Robert Smith was keen to move past the gloomy reputation his band had cultivated. With the 1982 single "Let's Go to Bed" Smith began to inject more of a pop sensibility into the band's music. The Cure's popularity increased as the decade wore on, especially in the United States, where the songs "Just Like Heaven", "Lovesong" and "Friday I'm in Love" entered the Billboard Top 40 charts. By the start of the 1990s, The Cure were one of the most popular alternative rock bands in the world and have sold an estimated 27 million albums as of 2004.[1] As of 2007, The Cure have released twelve studio albums and over thirty singles, with a thirteenth album due in September 2008.

Indexed at Wikipedia.

Show us your talent, perform Close To Me Tab!

Here you can post a video or audio performance. Tell me more ...
Where can we find your performance? Tell me more ...
Your comment:
Please, log in to post your performance.