Artists by letter: A B C D E F G H I J K L M N O P Q R S T U V W X Y Z 0-9
 
Forever Now Tab
		Forever Now - COLD CHISEL

Tabbed By Stuart Edwards (ALLMUSIC ACADEMY) New Zealand  1.6.99


INTRO - Amaj Bmaj C#min G#min/Amaj Bmaj Emaj
	       Amaj Bmaj C#min x3 Amaj Bmaj
Emaj 						    	Amaj Bmaj
Taking a seat at the bar she don't talk to anyone
Emaj								   Bsus4 Bmaj
Plane leaving soon far afar where she don't know anyone
C#min 	        Dmaj		         C#min       Bmaj			 Bmaj        Amaj
She thinks of her precious time there's no one she leaves behind who could change her mind
  F#min          	Amaj      Bmaj     F#min                   Amaj       Bmaj
Is this the way it's gonna be forever, Is this the way it's gonna be forever
 F#min     		Amaj     Bmaj    Emaj  Amaj  Emaj
Is this the way it's gonna be forever now
CHORUS -
			Emaj         Amaj  Bmaj           Emaj
Take a whole life's loneliness wrap it up in some tenderness
   Amaj  Bmaj           Emaj             Amaj Bmaj  Emaj  Amaj Emaj
 Send it off to some emptiness with all my love
           Emaj  		Amaj   Bmaj		Emaj
It's only you and me, there'll be nothing we need to see
  Amaj    Bmaj          F#min      Amaj Bmaj      Emaj  Amaj  Emaj
 Only one thing can set you free is all my love
INTRO - Amaj Bmaj C#min x3 Amaj Bmaj
Emaj									   Amaj Bmaj
Making his way down the stairs he can't help but looking back
  Emaj 									      Bsus4  Bmaj
And thinks of the things that they shared there'll be no more turning back
   C#min            Dmaj                   C#min   	Bmaj			Bmaj  Amaj
He thinks of the day they met the words that she said a love he just cant forget
     F#min    		Amaj  	       	Bmaj 	F#min 		Amaj        Bmaj
It's just the way they wanna be forever, it's just the way they wanna be forever
      F#min              Amaj       Bmaj      Emaj  Amaj Emaj
Oh tell me it will always be forever now
CHORUS - x2
		           F#min       Amaj   Bmaj  Emaj  Amaj Emaj
Only one thing can set you free is all our love, oh yeah oh yeah
SOLO - Amaj Bmaj C#min x3 Amaj Bmaj Emaj
INTRO
1 --------------------------------------------------------------------------------------------|
2 --------------------------------------------------------------------------------------------|
3 -----68fhb(8)---------------4----------------6-8fhb(8)--------------4----------------------|
4 --7--------------6-6hb(6)p4-----44h6-6----7--------------4-6hb(6)p4----6-6p4h6------------|
5 ----------------------------------------------------------------------------------6---------|
6 --------------------------------------------------------------------------------------------|

1 --------------------------------------------------------------------------------------------|
2 ---------------------------10p9-------------------------------------------------------------|
3 -----6-8fhb(8)---8-8-9-11----------------------------9p8h9p8p6\----6-8fhb(8)-8-8-8-9-9h11p9-|
4 --7------------------------------11--------------11-------------7---------------------------|
5 ------------------------------------11-9----9-11--------------------------------------------|
6 -----------------------------------------12-------------------------------------------------|


Forever Now - Guitar Solo


1 ---------12-----------------------------------------------------------------------------------|
2 ---12fb------12fb(12)12-9har-12-------12-------------------------------------9---------------|
3 ----------------------------------11fb----11fb(11)p9-----9\-------9-8----11-9---11------------|
4 -----------------------------------------------------11--------11-----11----------------------|
5 ----------------------------------------------------------------------------------------------|
6 ----------------------------------------------------------------------------------------------|


1 ------------------11-14----11-12----11--------------------------------------------------------|
2 ---12p11p9h11h12--------12-------14----12-14-11-12----11-------------------------------12-12--|
3 ---------------------------------------------------13----1311\9\8-11-9-11----9h11/13--------|
4 ----------------------------------------------------------------------------11----------------|
5 ----------------------------------------------------------------------------------------------|
6 ----------------------------------------------------------------------------------------------|


1 --------------------------------12-------------------------------------------12---------------|
2 ----------------------12-12fb------(12fb)(12)p10-12---12p9----9--------12fb-----(12fb)(12)p10-|
3 -11-(11)/13\11/1313---------------------------------------11---9----9------------------------|
4 ------------------------------------------------------------------11--------------------------|
5 ----------------------------------------------------------------------------------------------|
6 ----------------------------------------------------------------------------------------------|


1 ------------------12fb(12)p9------9-12-14-14fb---14fb(14)p12h14-------------------------------|
2 ---12------99----------------12--------------------------------------------------------------|
3 -------11-------------------------------------------------------------------------------------|
4 ----------------------------------------------------------------------------------------------|
5 ----------------------------------------------------------------------------------------------|
6 ----------------------------------------------------------------------------------------------|


1 --11-14-11-14-11-12p11-----------------------------------------------------------------------|
2 ------------------------14-11-12-14-11-12----11-----------------------------------------------|
3 ------------------------------------------13-----13-11-------11-9-11-----9-11p9\8-------------|
4 -------------------------------------------------------14-13----------11----------9-----------|
5 ------------------------------------------------------------------------------------11-9\7\6--|
6 ----------------------------------------------------------------------------------------------|
Tablature player for this song:
 
 
Cold Chisel - Forever Now Tab :: indexed at Ultimate Guitar.
Forever Now tabs @ 911Tabs
People who played Cold Chisel - Forever Now Tab also played these songs by Cold Chisel:
Working Class Man Chords, When The War Is Over Tab, Bow River Chords, My Baby Tab, Flame Trees Chords, Khe Sanh Chords

About the artist behind Forever Now Tab:

Cold Chisel are a rock band from Adelaide, Australia. They are regarded as the canonical example of Australian pub rock, with a string of hits throughout the 1970s and 1980s, and they are acknowledged as one of the most popular and successful Australian groups of the period, although this success and acclaim was almost completely restricted to Australia and New Zealand.

Indexed at Wikipedia.

Show us your talent, perform Forever Now Tab!

Here you can post a video or audio performance. Tell me more ...
Where can we find your performance? Tell me more ...
Your comment:
Please, log in to post your performance.