Artists by letter: A B C D E F G H I J K L M N O P Q R S T U V W X Y Z 0-9

 
Broken Angel Tab
Boyce Avenue - Broken Angel
Music, Lyrics, & Tab by Alejandro Manzano of Boyce Avenue

www.YouTube.com/BoyceAvenue

Acoustic Guitar

Key of A

Tuning: D  A  D  E  A  E

^ = hammer on
/ = slide up
\ = slide down
X = mute

Intro:
-----0-----------0-----------0-------0-|
---0-------0---0-------0---0-------0-0-|
---------0-----------0-----------0---2-|
-------------------------------------0-|
-4-----2---/-7---\-0-----4-----2-----0-|
-4-----2---/-7---\-0-----4-----2-----0-|

-0---0---0---0---0---0---0---0---0-0-|
-0---0---0---0---0---0---0---0---0-0-|
-0---0---0---2---0---0---2---0^2-2-0-|
-x---x---x---0---x---x---0---0---0-0-| (play 2x)
-4---2---7---0---4---2---0-----------|
-4---2---7---0---4---2---0-----------|

-0---0---0-0-x-0-x-x-0---0-0-x-0-x-x-0---|
-0---0---0-0-x-0-x-x-0---0-0-x-0-x-x-0---|
-4---5---2-2-x-2-x-x-5/7-2-2-x-2-x-x-7/9-|
-2---4---0-0-x-0-x-x-0---0-0-x-0-x-x-0---|
-2---4---0-0-x-0-x-x-0---0-0-x-0-x-x-0---|
-2---4---0-0-x-0-x-x-0---0-0-x-0-x-x-0---|

-0---0---0-0-x-0-x-x-0---------|
-0---0---0-0-x-0-x-x-0---0---0-|
-4---5---2-2-x-2-x-x-5/7-0---0-|
-2---4---0-0-x-0-x-x-0---x---0-|
-2---4---0-0-x-0-x-x-0---4-\-0-|
-2---4---0-0-x-0-x-x-0---4-\-0-|

Verse:
---------------------------------------------|
----------0----------0----------0----------0-|
------0----------0----------0----------0-----|
----6---6------6---6------6---6------6---6---|
-0----------0----------x---------------------|
-----------------------0----------0----------|

---------------------------------------------|
----------0----------0----------0----------0-|
------0----------0----------0----------0-----|
----6---6------6---6------6---6------6---6---|
-x---------------------x---------------------|
-4----------4----------0----------0----------|

Pre-chorus:
---------------------------------------------|
----------0----------0----------0----------0-|
------0----------0----------0----------0-----|
----6---6------6---6------6---6------6---6---|
-0----------0----------x---------------------|
-----------------------0----------0----------|

-----------------------0---0-|
----------0----------0-0---0-|
------0----------0-----4---2-|
----6---6------6---6---2---0-|
-x---------------------2---0-|
-4----------4----------2---0-|

Chorus 1:
-0---0---0---0---0---0---0---0---0-0-|
-0---0---0---0---0---0---0---0---0-0-|
-0---0---0---2---0---0---2---0^2-2-0-|
-x---x---x---0---x---x---0---0---0-0-|
-4---2---7---0---4---2---0-----------|
-4---2---7---0---4---2---0-----------|

-0---0---0---0---0---0---0-|
-0---0---0---0---0---0---0-|
-0---0---0---2---0---0---2-|
-x---x---x---0---x---x---0-|
-4---2---7---0---4---2---0-|
-4---2---7---0---4---2---0-|

Turnaround:
---------------------------------------------|
----------0----------0----------0----------0-|
------0----------0----------0----------0-----|
----6---6------6---6------6---6------6---6---|
-0----------0----------x---------------------|
-----------------------0----------0----------|

---------------------------------------------|
----------0----------0----------0----------0-|
------0----------0----------0----------0-----|
----6---6------6---6------6---6------6---6---|
-x---------------------x---------------------|
-4----------4----------0----------0----------|

Chorus 2:
-0---0---0---0---0---0---0---0---0-0-|
-0---0---0---0---0---0---0---0---0-0-|
-0---0---0---2---0---0---2---0^2-2-0-|
-x---x---x---0---x---x---0---0---0-0-| (play 2x)
-4---2---7---0---4---2---0-----------|
-4---2---7---0---4---2---0-----------|

-0---0---0-0-x-0-x-x-0---0-0-x-0-x-x-0---|
-0---0---0-0-x-0-x-x-0---0-0-x-0-x-x-0---|
-4---5---2-2-x-2-x-x-5/7-2-2-x-2-x-x-7/9-|
-2---4---0-0-x-0-x-x-0---0-0-x-0-x-x-0---|
-2---4---0-0-x-0-x-x-0---0-0-x-0-x-x-0---|
-2---4---0-0-x-0-x-x-0---0-0-x-0-x-x-0---|

-0---0---0-0-x-0-x-x-0---------|
-0---0---0-0-x-0-x-x-0---0---0-|
-4---5---2-2-x-2-x-x-5/7-0---0-|
-2---4---0-0-x-0-x-x-0---x---0-|
-2---4---0-0-x-0-x-x-0---4-\-0-|
-2---4---0-0-x-0-x-x-0---4-\-0-|

Bridge:
-0---0---0---0---0---0---0---0-|
-0---0---0---0---0---0---0---0-|
-0---0---0---0---0---0---0---0-|
-7---6---4---6---7---6---4---6-|
-0---0---0---0---0---0---0---0-|
-----------------0---0---0---0-|

-0---0---0---0---0---0---0---0-|
-0---0---0---0---0---0---0---0-|
-0---0---0---0---0---0---0---0-|
-7---6---4---6---7---6---4---6-|
-x---x---x---x---0---0---0---0-|
-4---4---4---4---0---0---0---0-|

Breakdown/Chorus 3/Chorus 4:
-0---0---0---0---0---0---0-|
-0---0---0---0---0---0---0-|
-0---0---0---2---0---0---2-|
-x---x---x---0---x---x---0-|
-4---2---7---0---4---2---0-|
-4---2---7---0---4---2---0-|

-----0-----------0-----------0-------0-|
---0-------0---0-------0---0-------0-0-|
---------0-----------0-----------0---2-|
-------------------------------------0-|
-4-----2---/-7---\-0-----4-----2-----0-|
-4-----2---/-7---\-0-----4-----2-----0-|

-0---0---0-0-x-0-x-x-0---0-0-x-0-x-x-0---|
-0---0---0-0-x-0-x-x-0---0-0-x-0-x-x-0---|
-4---5---2-2-x-2-x-x-5/7-2-2-x-2-x-x-7/9-|
-2---4---0-0-x-0-x-x-0---0-0-x-0-x-x-0---|
-2---4---0-0-x-0-x-x-0---0-0-x-0-x-x-0---|
-2---4---0-0-x-0-x-x-0---0-0-x-0-x-x-0---|

-0---0---0-0-x-0-x-x-0---0-----0-----|
-0---0---0-0-x-0-x-x-0---0-----0-----|
-4---5---2-2-x-2-x-x-5/7-0-0-0-0-0-0-|
-2---4---0-0-x-0-x-x-0---4-2-0-7-6-0-|
-2---4---0-0-x-0-x-x-0---4-2-0-x-x-0-|
-2---4---0-0-x-0-x-x-0---4-2-0-7-6-0-|

-0---0---0-0-x-0-x-x-0---0-0-x-0-x-x-0---|
-0---0---0-0-x-0-x-x-0---0-0-x-0-x-x-0---|
-4---5---2-2-x-2-x-x-5/7-2-2-x-2-x-x-7/9-|
-2---4---0-0-x-0-x-x-0---0-0-x-0-x-x-0---|
-2---4---0-0-x-0-x-x-0---0-0-x-0-x-x-0---|
-2---4---0-0-x-0-x-x-0---0-0-x-0-x-x-0---|

-0---0---0-0-x-0-x-x-0---------|
-0---0---0-0-x-0-x-x-0---0---0-|
-4---5---2-2-x-2-x-x-5/7-0---0-|
-2---4---0-0-x-0-x-x-0---x---0-|
-2---4---0-0-x-0-x-x-0---4-\-0-|
-2---4---0-0-x-0-x-x-0---4-\-0-|

Outro:
-0---0---0---0---0---0---0---0-|
-0---0---0---0---0---0---0---0-|
-0---0---0---0---0---0---0---0-|
-7---6---4---6---7---6---4---6-|
-0---0---0---0---0---0---0---0-|
-----------------0---0---0---0-|

-0---0---0---0---0---0---0---0-|
-0---0---0---0---0---0---0---0-|
-0---0---0---0---0---0---0---0-|
-7---6---4---6---7---6---4---6-|
-x---x---x---x---0---0---0---0-|
-4---4---4---4---0---0---0---0-|

Last Chords:
---------0-|
-0---0---0-|
-0---0---0-|
-x---0---2-|
-4-\-0---0-|
-4-\-0---x-|
 
 
Boyce Avenue - Broken Angel Tab :: indexed at Ultimate Guitar.
Broken Angel tabs @ 911Tabs
People who played Boyce Avenue - Broken Angel Tab also played these songs by Boyce Avenue:
Find Me Chords, No Air Chords, Disturbia Tab, Umbrella Chords, Heaven Chords, Here Without You Tab, Titanium Tab, Fix You Tab

Quick tip, so you can enjoy Broken Angel Tab even more:

After the registration (which takes just 10 seconds, remember?) you will be able to use your profile - your very own piece of YourChords.com.

Show us your talent, perform Broken Angel Tab!

Here you can post a video or audio performance. Tell me more ...
Where can we find your performance? Tell me more ...
Your comment:
Please, log in to post your performance.