Artists by letter: A B C D E F G H I J K L M N O P Q R S T U V W X Y Z 0-9
 
Next Girl Tab
Intro:
----------------------------------------------------------|
----------------------------------------------------------|
----------------1-1-1-1-1-1-1-1---------------------------|
--------2--4------------------------4-4-4-4-2-------------|
-----4----------------------------------------------------|
----------------------------------------------------------|
Gtr. 1
--------------------------------------------|
--------------------------------------------|
--------------------------------------------|
--------------------------------------------|
----2-4-4--------------2--------------------|
----------------------------0-0-------------|
Gtr. 2						x2
-------------------------------------------|
------------5-2--2------------7-5-7-5------|
----------------4--------------------------|
-------------------------------------------|
-------------------------------------------|
-------------------------------------------|
Gtr. 1
---------------------------------------------------------------------------------------|
---------------------------------------------------------------------------------------|
---------------------------------------------------------------------------------------|
---------------------------------------------------------------------------------------|
--2-4-4--------------2-----------------------2-4-4------------2------------------------|
----------------------------0-0------------------------------------0-0-----------------|
Gtr. 2
---------4-2---2-----------------4-2---2------------------------------------------------|
--------------5---5-------------------5--------------5-2---2------------7-5-7-5---------|
-----------------------------------------------------------4------------------------6---|
----------------------------------------------------------------------------------------|
----------------------------------------------------------------------------------------|
----------------------------------------------------------------------------------------|

Verse:
---------------------------------------------------------------------------------------|
---------------------------------------------------------------------------------------|
---------------------------------------------------------------------------------------|
---------------------------------------------------------------------------------------|
--2-4-4--------------2-----------------------2-4-4------------2------------------------|
----------------------------0-0------------------------------------0-0-----------------|

Chorus 1: Gtr.1 & Gtr. 2
----------------------------------------------------|
----------------------------------------------------|
----------------------------------------------------|    x2
-------2----------2-----------4-2--------2----------|
--2-4---4----2-4--4----2-4--------2-4---4-----------|
----------------------------------------------------|
Verse:
---------------------------------------------------------------------------------------|
---------------------------------------------------------------------------------------|
---------------------------------------------------------------------------------------|
---------------------------------------------------------------------------------------|
--2-4-4--------------2-----------------------2-4-4------------2------------------------|
----------------------------0-0------------------------------------0-0-----------------|

Chorus 2: Gtr.1 & Gtr. 2
-----------------------------------------------        ------------------------------------------|
-----------------------------------------------        ------------------------------------------|
-----------------------------------------------    x2-1-1-1-1-1-1-1-1----------------------------|
-------2----------2-----------4-2--------2---               ---------------------4-4-4-4-4-4-2---|
--2-4---4----2-4--4----2-4--------2-4---4-        ---------------------------------------4-------|
-----------------------------------------------              ------------------------------------|


------------------------------------------------------------------------------------|
------------------------------------------------------------------------------------|
---------------------------------------1-1-1-1-1-1-1-1------------------------------|
-------2----------2-----------2-4-------------------------4-4-4-4-2-----------------|
--2-4---4----2-4--4----4-4----------------------------------------------------------|
------------------------------------------------------------------------------------|
Gtr. 1
--------------------------------------------|
--------------------------------------------|
--------------------------------------------|
--------------------------------------------|
----2-4-4--------------2--------------------|
----------------------------0-0-------------|
Gtr. 2						x2
---------------------------------------------|
--------------2-5-2------------7-5-7-5-------|
-----------4---------------------------------|
---------------------------------------------|
---------------------------------------------|
---------------------------------------------|
Gtr. 1
---------------------------------------------------------------------------------------|
---------------------------------------------------------------------------------------|
---------------------------------------------------------------------------------------|
---------------------------------------------------------------------------------------|
--2-4-4--------------2-----------------------2-4-4------------2------------------------|
----------------------------0-0------------------------------------0-0-----------------|
Gtr. 2
---------4-2----2-----------------4-2----2------------------------------------------------------|
--------------5------------------------5----------------2-5-2------------5h7-5------------------|
-------------------------------------------------------4---------------------------4-6~b7/6-4h6~|
------------------------------------------------------------------------------------------------|
------------------------------------------------------------------------------------------------|
------------------------------------------------------------------------------------------------|
Tablature player for this song:
 
 
Black Keys - Next Girl Tab :: indexed at Ultimate Guitar.
Next Girl tabs @ 911Tabs

About the artist behind Next Girl Tab:

The Black Keys are a blues-rock music duo consisting of Dan Auerbach (vocals and guitar) and Patrick Carney (drums and percussion) from Akron, Ohio.

Indexed at Wikipedia.

Show us your talent, perform Next Girl Tab!

Here you can post a video or audio performance. Tell me more ...
Where can we find your performance? Tell me more ...
Your comment:
Please, log in to post your performance.