Artists by letter: A B C D E F G H I J K L M N O P Q R S T U V W X Y Z 0-9

Rock Me Gently Bass Tab (ver 2) - Andy Kim

 
Rock Me Gently Bass Tab
[INTRO]
  C        F        C        F        C        F        C        F
G:------54|2-------|------54|2-------|------54|2-------|------54|2-------|
D:--------|-3----0-|--------|-3----0-|--------|-3----0-|--------|-3----0-|
A:333--3--|--3--0-0|333--3--|--3--0-0|333--3--|--3--0-0|333--3--|--3--0-0|
E:--------|--------|--------|--------|--------|--------|--------|--------|

[VERSE]
C                 F                       C                       F
  Ain't it good?    Ain't it right?         That you are with me    Here tonight
C                 F                       C                       F
  Music playing     Our bodies swaying in time

  C        F        C        F        C        F        C        F
G:------5-|--------|------5-|--------|------5-|--------|------5-|--------|
D:-----5--|33-3--0-|-----5--|33-3--0-|-----5--|33-3--0-|-----5--|33-3--0-|
A:33-3----|-----0-0|33-3----|-----0-0|33-3----|-----0-0|33-3----|-----0-0|
E:--------|--------|--------|--------|--------|--------|--------|--------|

C                 F                       C                       F
  Touching you      so warm and tender      Lord, I feel such a     Sweet surrender
C                  F                    C                         F
  Beautiful is the dream that makes you mine

  C        F        C        F        C        F        C        F   
G:------5-|--------|------5-|--------|------5-|--------|------5-|--------|
D:-----5-5|33-3--0-|-----5-5|33-3--0-|-----5-5|33----0-|-----5-5|33-3--0-|
A:33-3----|-----3-0|33-3----|-----3-0|33-3----|---0-3-0|33-3----|-----3-0|
E:--------|--------|--------|--------|--------|--------|--------|--------|

C                 F                       C            F
Rock me gently    Rock me slowly          Take it easy don't you know
     C                 F                 C          F     G
That I have never been loved like this before       Baby, baby

  C        F        C        F        C        F        C        F   G
G:------5-|--------|------5-|--------|------5-|--------|------5-|--------|
D:-----5-5|33----0-|-----5-5|33----0-|-----5-5|33----0-|-----5-5|3-3-5---|
A:33-3----|--0--3-0|33-3----|--0--3-0|33-3----|--0--3-0|33-3----|--------|
E:--------|--------|--------|--------|--------|--------|--------|---3--3-|

[CHORUS]
C                 F                       C            F
Rock me gently    Rock me slowly          Take it easy don't you know
     C                 F                 C         C
That I have never been loved like this before

  C        F        C        F        C        F        C        C
G:------5-|2-------|------5-|2-------|------5-|2-------|--------|--------|
D:-----5-5|-3----0-|-----5-5|-3----0-|-----5-5|-3----0-|--------|--------|
A:333-----|--3--0-0|3-3-----|--3--0-0|333-----|--3--0-0|3~~~~~~~|--------|
E:--------|--------|--------|--------|--------|--------|--------|--------|

[VERSE]

C                 F              C                         F
  Oh my darling,    Oh, my baby    You got the moves that    Drive me crazy
C                   F                  C                 F
  And on your face    I see a trace of love (of love, of love, of love)

  C        F        C        F        C        F        C        F
G:------5-|--------|------5-|--------|------5-|--------|------5-|--------|
D:-----5--|33-3--0-|-----5--|33-3--0-|-----5--|33-3--0-|-----5--|33-3--0-|
A:33-3----|-----0-0|33-3----|-----0-0|33-3----|-----0-0|33-3----|-----0-0|
E:--------|--------|--------|--------|--------|--------|--------|--------|





C                      F                   C                   F
  Come hold me close     Don't let me go     I need ya honey     I love you so
C                   F                C          F
  You were made for me by the stars above       Hmmmmmmmmmm
  C        F        C        F        C        F        C        F   
G:------5-|--------|------5-|--------|------5-|--------|------5-|--------|
D:-----5-5|33-3--0-|-----5-5|33-3--0-|-----5-5|33----0-|-----5-5|33-3--0-|
A:33-3----|-----3-0|33-3----|-----3-0|33-3----|---0-3-0|33-3----|-----3-0|
E:--------|--------|--------|--------|--------|--------|--------|--------|

C                 F                       C            F
Rock me gently    Rock me slowly          Take it easy don't you know
     C                 F                 C          F     G
That I have never been loved like this before       Baby, baby

  C        F        C        F        C        F        C        F   G
G:------5-|--------|------5-|--------|------5-|--------|------5-|--------|
D:-----5-5|33----0-|-----5-5|33----0-|-----5-5|33----0-|-----5-5|3-3-5---|
A:33-3----|--0--3-0|33-3----|--0--3-0|33-3----|--0--3-0|33-3----|--------|
E:--------|--------|--------|--------|--------|--------|--------|---3--3-|

[CHORUS]
C                 F                       C            F
Rock me gently    Rock me slowly          Take it easy don't you know
     C                 F                 C         C
That I have never been loved like this before

  C        F        C        F        C        F        C        C
G:------5-|2-------|------5-|2-------|------5-|2-------|--------|--------|
D:-----5-5|-3----0-|-----5-5|-3----0-|-----5-5|-3----0-|--------|--------|
A:333-----|--3--0-0|3-3-----|--3--0-0|333-----|--3--0-0|3~~~~~~~|--------|
E:--------|--------|--------|--------|--------|--------|--------|--------|

[BRIDGE]
  C        F        C        F        
G:--5-----|--------|--5-----|--------|
D:--------|--------|--------|--------|
A:3---3-30|-------0|3---3-30|-------0|
E:--------|11-1-1--|--------|11-1-1--|
C                 F                       C            F
Rock me gently    Rock me slowly          Take it easy don't you know
     C                 F                 C          
That I have never been loved like this before       

  C        F        C        F        C        F        C        
G:--5-----|--------|--5-----|--------|--5-----|--------|--5-----|
D:--------|--------|--------|--------|--------|--------|--------|
A:3---3-30|-------0|3---3-30|-------0|3---3-30|-------0|3---3-30|
E:--------|11-1-1--|--------|11-1-1--|--------|11-1-1--|--------|

F          G      F          G            F              G        F        G     G G
  Ain't it good?    Ain't it right?         That you are with me    Here tonight

  F  G     F  G     F  G     F  G     G        G
G:--------|--------|--------|--------|--------|--------|
D:30------|30------|30------|30------|--------|--------|
A:--3-----|--3-----|--3-----|--3-----|--------|--------|
E:---3-333|---3-333|---3-333|---3-333|33333333|33333333|

[CHORUS] (Repeat and fade)
C                 F                       C            F
Rock me gently    Rock me slowly          Take it easy don't you know
     C                 F                 C         C
That I have never been loved like this before

  C        F        C        F        C        F        C        C
G:------5-|2-------|------5-|2-------|------5-|2-------|--------|--------|
D:-----5-5|-3----0-|-----5-5|-3----0-|-----5-5|-3----0-|--------|--------|
A:333-----|--3--0-0|3-3-----|--3--0-0|333-----|--3--0-0|33333333|33333333|
E:--------|--------|--------|--------|--------|--------|--------|--------|

Tabbed by Michael Oxner (moxner@nbnet.nb.ca)
Tablature player for this song:
 
 
Andy Kim - Rock Me Gently Bass Tab :: indexed at Ultimate Guitar.
Rock Me Gently Bass tabs @ 911Tabs

Quick tip, so you can enjoy Rock Me Gently Bass Tab even more:

If you don't really know how to deal with "Absus4" chord and his equally confusing brothers, just put the mouse cursor over them and you will be shown a helpful chord diagram.

Show us your talent, perform Rock Me Gently Bass Tab!

Here you can post a video or audio performance. Tell me more ...
Where can we find your performance? Tell me more ...
Your comment:
Please, log in to post your performance.