Artists by letter: A B C D E F G H I J K L M N O P Q R S T U V W X Y Z 0-9

 
Over You Tab
(/) Slide Up  () Slide Down  (h) Hammer On  (p) Pull Off  (b) Bend (r) Release (v) Vibrato

Tuning: 1/2 Step Down

Verse
E|--0--0--0--0--0--|
B|--0--0--0--0--0--|
G|--9--8--6--4--6--|
D|--9--9--6--4--7--|
A|--7--9--4--2-7--|
E|--0--7--------5--| x2

Prechorus (Palm Mute)
E|-----------|
B|-----------|
G|--3--6--8--|
D|--4--7--9--|
A|--4--7--9--|
E|--2--5--7--|

Chorus
E|----------------|
B|----------------|
G|-9--8--6--4--6--|
D|-9--9--6--4--7--|
A|-7--9--4--2--7--|
E|----7-----5-----|

Solo 1
E|------------------------------------------------|
B|------------------------------------------------|
G|--14-13-/9-14-13-/9-11-13-12-11-9-11v-9---------|
D|-----------------------------------------9h10p9-|
A|------------------------------------------------|
E|------------------------------------------------|

Solo 2
E|-------------------------------------------------------------------------------|
B|-------------------------------------------12-11-17--17--17b19---17--17--17b19-|
G|--14-13-/9-14-13-9-11-13-12-14-16-14-12-11---------16--16------13--13--13------|
D|-------------------------------------------------------------------------------|
A|-------------------------------------------------------------------------------|
E|-------------------------------------------------------------------------------|

Sounds perfect to me. Figure out the strum pattern by listening to the song.

 
 
Daughtry - Over You Tab :: indexed at Ultimate Guitar.
Over You tabs @ 911Tabs

About the artist behind Over You Tab:

Daughtry (IPA: /ˈdoʊtriː/[4]) is an American Music Award-winning and Grammy-nominated rock band from North Carolina, formed by former American Idol finalist Chris Daughtry in 2006. Their self-titled debut album was released on November 21, 2006. The disc reached #1 for two non-consecutive weeks on the Billboard 200, outsold Idol winner Taylor Hicks' debut effort, sold more than 4 million copies and was named the number one selling album of 2007 by Billboard. Their album is also the fastest-selling debut rock album in Soundscan history.[5] The first single from the album, "It's Not Over", was the eighth most played song across all formats on U.S. radio in 2007, and their second single from the album, "Home", was the tenth most played song in the U.S. of 2007.[6]

Indexed at Wikipedia.

Show us your talent, perform Over You Tab!

Here you can post a video or audio performance. Tell me more ...
Where can we find your performance? Tell me more ...
Your comment:
Please, log in to post your performance.