Artists by letter: A B C D E F G H I J K L M N O P Q R S T U V W X Y Z 0-9

 
Baby Hates Me Tab
Band: Danko Jones
Song: Baby hates me
Album: Sleep Is The Enemy

Tabbed by: MT #99 
Email: marek99@gmail.com

Tuning: Standard



Intro (0:00-0:27)
=================
***Guitar 1
e|-------------------------------------------------|
B|-------------------------------------------------|
G|-------------------------------------------------|
D|-13-13-13-13-13-13-13-13-13-13-13-13-13-11-11-13-|
A|-11-11-11-11-11-11-11-11-11-11-11-11-11-9--9--11-| 5x
E|-------------------------------------------------|

e|----------------------------------------------|
B|----------------------------------------------|
G|----------------------------------------4-----|
D|-13-13-13-13-13-13-13-13-13-13-13-13-13-4-4-6-|
A|-11-11-11-11-11-11-11-11-11-11-11-11-11-2-4-6-|
E|------------------------------------------2-4-|

***Guitar 2 (at 0:07)
e|---------------------------------------|
B|---------------------------------------|
G|-6-6~---4-4~---9-9~--------------------|
D|-6-6~---4-4~---9-9~---4~-4-4-6-6~------|
A|-4-4~---2-2~---7-7~---4~-4-4-6-6~------|
E|----------------------2~-2-2-4-4~------|

e|--------------------------------------------|
B|--------------------------------------------|
G|-6-6~---4-4~---9-9~--------------------4----|
D|-6-6~---4-4~---9-9~---4~-4-2-6-6~------4-4-6|
A|-4-4~---2-2~---7-7~---4~-4-4-6-6~------2-4-6|
E|----------------------2~-2-4-4-4~--------2-4|

***Guitar 1,2 (at 0:20)
e|-------|
B|-------|
G|-4-----|
D|-4-4-6-|
A|-2-4-6-| x4
E|---2-4-|



Verse (0:27-0:53)
=================
***Guitar 1,2
e|---------------------------------|
B|---------------------------------|
G|-4-------4---6---4-------4-------|
D|-4-4-6---4-4-6---4-4-6---4-4-6---|
A|-2-4-6---2-4-4---2-4-6---2-4-6---| x3
E|---2-4-----2-------2-4-----2-4---|

e|---------------------------------|
B|---------------------------------|
G|-4-------4---6---4---------------|
D|-4-4-6---4-4-6---4-4-6--------9^-|
A|-2-4-6---2-4-4---2-4-6-----------|
E|---2-4-----2-------2-4---9-11----|



Pre-chorus (0:54-1:07)
==================
***Guitar 1,2
e|------------------------|
B|------------------------|
G|------------------------|
D|---------------------9^-|
A|-11-11-11-11-11---------| x6
E|----------------9-11----|

e|-------------------------|
B|-------------------------|
G|----------------------11-|
D|----------------------11-|
A|-11-11-11-11-11-11----9--|
E|-------------------------|


e|-----------------------|
B|-----------------------|
G|-11~-------------------|
D|-11~---11-11-11-11-11-|
A|-9~----11-11-11-11-11-|
E|-------9--9--9--9--9--|



Chorus (1:08-1:28)
==================
***Guitar 1,2
e|-------------------------|
B|-------------------------|
G|-------9-9-x-x-9---------|
D|-6-9-9-9-9-x-x-9-9-4-6---|
A|-6-9-9-7-7-x-x-7-9-4-6---| x4
E|-4-7-7-----------7-2-4---|

e|----------------------------------------------|
B|----------------------------------------------|
G|-6-6~---4-4~---9-9~---------------------4-----|
D|-6-6~---4-4~---9-9~---4-4-4-4-6-6~------4-4-6-|
A|-4-4~---2-2~---7-7~---4-4-4-4-6-6~------2-4-6-|
E|----------------------2-2-2-2-4-4~--------2-4-|

Verse (1:29-1:40)
=================
***Guitar 1,2
e|---------------------------------|
B|---------------------------------|
G|-4-------4---6---4-------4-------|
D|-4-4-6---4-4-6---4-4-6---4-4-6---|
A|-2-4-6---2-4-4---2-4-6---2-4-6---|
E|---2-4-----2-------2-4-----2-4---|

e|---------------------------------|
B|---------------------------------|
G|-4-------4---6---4---------------|
D|-4-4-6---4-4-6---4-4-6--------9^-|
A|-2-4-6---2-4-4---2-4-6-----------|
E|---2-4-----2-------2-4---9-11----|



Pre-chorus (1:41-1:54)
==================
***Guitar 1,2
e|------------------------|
B|------------------------|
G|------------------------|
D|---------------------9^-|
A|-11-11-11-11-11---------| x6
E|----------------9-11----|

e|-------------------------|
B|-------------------------|
G|----------------------11-|
D|----------------------11-|
A|-11-11-11-11-11-11----9--|
E|-------------------------|


e|-----------------------|
B|-----------------------|
G|-11~-------------------|
D|-11~---11-11-11-11-11-|
A|-9~----11-11-11-11-11-|
E|-------9--9--9--9--9--|



Chorus (1:55-2:22)
==================
***Guitar 1,2
e|-------------------------------|
B|-------------------------------|
G|-------9-9-x-x-9---------------|
D|-6-9-9-9-9-x-x-9-9-4-6-x-x-x-x-|
A|-6-9-9-7-7-x-x-7-9-4-6-x-x-x-x-| x4
E|-4-7-7-----------7-2-4-x-x-x-x-|

e|-------------------------------|
B|-------------------------------|
G|-------9-9-9-9-9---------------|
D|-6-9-9-9-9-9-9-9-9-4-6-6-6-6-6-|
A|-6-9-9-7-7-7-7-7-9-4-6-6-6-6-6-| x2
E|-4-7-7-----------7-2-4-4-4-4-4-|

e|----------------------------------------|
B|----------------------------------------|
G|-6-6~---4-4~---9-9~---------------------|
D|-6-6~---4-4~---9-9~---4-4-4-4-6-6~------|
A|-4-4~---2-2~---7-7~---4-4-4-4-6-6~------|
E|----------------------2-2-2-2-4-4~------|

***Guitar 1(background)~~~~~~~~~~~~~^
e|-------------------------------------------------|
B|-------------------------------------------------|
G|-------------------------------------------------|
D|-13-13-13-13-13-13-13-13-13-13-13-13-13-11-11-13-|
A|-11-11-11-11-11-11-11-11-11-11-11-11-11-9--9--11-| 
E|-------------------------------------------------|



Bridge (2:22-2:51)
=================
***Guitar 1
e|-------------------------------------------------|
B|-------------------------------------------------|
G|-------------------------------------------------|
D|-13-13-13-13-13-13-13-13-13-13-13-13-13-11-11-13-|
A|-11-11-11-11-11-11-11-11-11-11-11-11-11-9--9--11-| 9x
E|-------------------------------------------------|

***Guitar 2 (at 2:29)
e|---------------------------------------|
B|---------------------------------------|
G|-6-6~---4-4~---9-9~--------------------|
D|-6-6~---4-4~---9-9~---4~-4-4-6-6~------|
A|-4-4~---2-2~---7-7~---4~-4-4-6-6~------| x2
E|----------------------2~-2-2-4-4~------| 

***Guitar 2,3 (at 2:42)
e|---------------------------------------|
B|---------------------------------------|
G|-6-6~---4-4~---9-9~--------------------|
D|-6-6~---4-4~---9-9~---4~-4-4-6-6~------|
A|-4-4~---2-2~---7-7~---4~-4-4-6-6~------|
E|----------------------2~-2-2-4-4~------| 

e|-------------------------------|
B|-------------------------------|
G|-6-6~---4-4~---9-9~------------|
D|-6-6~---4-4~---9-9~---4~-4-4-6-|
A|-4-4~---2-2~---7-7~---4~-4-4-6-|
E|----------------------2~-2-2-4-|



Chorus (2:52-3:28)
==================
***Guitar 1,2
e|-----------------------|
B|-----------------------|
G|-------9-9-----9-------|
D|-6-9-9-9-9-----9-9-4-6-|
A|-6-9-9-7-7-----7-9-4-6-| x2
E|-4-7-7-----------7-2-4-|

e|-------------------------------|
B|-------------------------------|
G|-------9-9-x-x-9---------------|
D|-6-9-9-9-9-x-x-9-9-4-6-x-x-x-x-|
A|-6-9-9-7-7-x-x-7-9-4-6-x-x-x-x-| x2
E|-4-7-7-----------7-2-4-x-x-x-x-|

e|-------------------------------|
B|-------------------------------|
G|-------9-9-9-9-9---------------|
D|-6-9-9-9-9-9-9-9-9-4-6-6-6-6-6-|
A|-6-9-9-7-7-7-7-7-9-4-6-6-6-6-6-| x5
E|-4-7-7-----------7-2-4-4-4-4-4-|

e|-----------------------|
B|-----------------------|
G|-------9-9-9-9-9-------|
D|-6-9-9-9-9-9-9-9-9-4-6-|
A|-6-9-9-7-7-7-7-7-9-4-6-|
E|-4-7-7-----------7-2-4-|

Its pretty cool song, enjoy ^^. Bai.




















 
 
Danko Jones - Baby Hates Me Tab :: indexed at Ultimate Guitar.
Baby Hates Me tabs @ 911Tabs
People who played Danko Jones - Baby Hates Me Tab also played these songs by Danko Jones:
Code Of The Road Tab, First Date Tab, Full Of Regret Tab, Had Enough Tab, Take Me Home Chords, Forget My Name Tab

About the artist behind Baby Hates Me Tab:

Danko Jones is a three-piece hard rock band from Toronto, Canada.

The band consists of Danko Jones (vocals/guitar), JC (also known as John Calabrese) (bass guitar), and Dan Cornelius (drums).

Indexed at Wikipedia.

Show us your talent, perform Baby Hates Me Tab!

Here you can post a video or audio performance. Tell me more ...
Where can we find your performance? Tell me more ...
Your comment:
Please, log in to post your performance.