Artists by letter: A B C D E F G H I J K L M N O P Q R S T U V W X Y Z 0-9
 
Tuliro Tab
 																																													Tuliro Tab									by Sponge Cola tabs |											tabbed by nybi | 									comments (16) 																																													1																							2																							3																							4																							5																																															  7 votes 								 																	 									print																																							 									send																																							 									report																																																																																																													More versions:																																																																																																																																			Ver 2																																																																																																																																Ver 3																																																																																																																																Ver 4																																																																																																																																																																																																																																																																																																																																																																																		Recommended tabs																																																											If you like Tuliro Tab by Sponge Cola you might also like these songs:																									Love Story Chordsby Taylor Swift																									Moment Of Truth Tabby Fm Static																									The Climb Chordsby Miley Cyrus																																																																																																																																Tuliro Lyricsby Sponge Cola Lyrics																						Tuliro Tabat 911Tabs.com																																																						 																																																																																																																																																																																												 																																																																																																																												+ to speed up (numpad)															- to slow down (numpad)															Esc to stop																												Help																																																																																																																																																											Tuliro tab by Sponge Cola, www.Ultimate-Guitar.Com																																													Listen to Tuliro																																														Add to favourites																																																																				Difficulty: novice																																																																																			tf_artist = "Sponge Cola";											tf_song = "Tuliro";																																																												artist: Spongecola
Song  : Tuliro
Album : Transit

From:NCAP
Tabbed by: John Matthew Toledo
date: Oct. 29, 2006


HI poh sa lahat.. para to sa bebe koh! mahal na mahal kita...!  sa mga kaibigan ko..
Rollie.. Jr.. Buboy.. at sa iba pah..

Xenxa na poh kung sablay pero I did my best naman.. kakatamad kasi pag bakasyon! wala
kung may mga comments kau or any reaction about

dito.. e-mail me at jm_qt19@yahoo.com....

Sana poh magustuhan nyo...timmingan nyo na lng poh..  and pakinggan ng mabuti yung song....

Gtr 1: lead
Gtr 2: rhythm
gtr 3: bass

intro:


Guitar-2
   B      C     C#  Eb
e|-------------------------------|
B|-------------------------------|
G|-4444-5555--6666--8------------|
D|-4444-5555--6666--8----------- |
A|-2222-3333--4444--6------------|
E|------------------------------ |

Gtr-1

e|--------------9-9---9--9-9---9--|
B|--------------9---9----9---9----|
G|--------------9--------9--------|
D|--------------------------------|
A|--------------------------------|
E|--------------------------------|

Verse 1


gtr-2
   B      C     C#  Eb
e|-------------------------------|
B|-------------------------------|
G|-4444-5555--6666--8------------|
D|-4444-5555--6666--8----------- |    X4
A|-2222-3333--4444--6------------|
E|------------------------------ |


gtr-1

e|---9---9-----9---9-----9---9-----9-9---9--9-|
B|---9-8---8---9-8---8---9-8---8---9---9---9--|
G|---9---------9---------9---------9----------|
D|--------------------------------------------|
A|--------------------------------------------|
E|--------------------------------------------|

e|---9---9-----9---9-----9---9----9---9---9-----|
B|---9-9-------9-9-------9-9------9-9---9---9---|
G|---9---------9---------9--------9-----------9-|
D|----------------------------------------------|
A|----------------------------------------------|
E|----------------------------------------------|

Refrain


gtr-2

   B      C     C#              B     C       C#
e|----------------------------------------------------------------|
B|----------------------------------------------------------------|
G|-44-----5----666666666-------44-----5----666666666--------------|
D|-44-----5----666666666-------44-----5----666666666------------- |
A|-22-----3----444444444-------22-----3----444444444--------------|
E|--------------------------------------------------------------- |


  B               C            C#
e|-------------------------------------------------------------|
B|-------------------------------------------------------------|
G|-44444444-----55555555----66666666666666---------------------|
D|-44444444-----55555555----66666666666666-------------------- |
A|-22222222-----33333333----44444444444444---------------------|
E|------------------------------------------------------------ |


 B               C            C#                 Eb             C#
e|-------------------------------------------------------------------------|
B|-------------------------------------------------------------------------|
G|-44444444-----55555555----66666666666666------8xxxx8-----66666666666666--|
D|-44444444-----55555555----66666666666666------8xxxx8-----66666666666666- |
A|-22222222-----33333333----44444444444444------6xxxx6-----44444444444444--|
E|-------------------------------------------------------------------------|

Gtr-1


e|---10101010101010101010-14141414141414141414-12121212121212121212------|
B|-----------------------------------------------------------------------|
G|-----------------------------------------------------------------------|  x3
D|-----------------------------------------------------------------------|
A|-----------------------------------------------------------------------|
E|-----------------------------------------------------------------------|


e|---10-1010101010-10101010-10101010-10101010-10101010-101010101-10101010-|
B|------------------------------------------------------------------------|
G|------------------------------------------------------------------------|
D|------------------------------------------------------------------------|
A|------------------------------------------------------------------------|
E|------------------------------------------------------------------------|


Verse 2


Gtr-2

      B        Cm    C#m    Eb
e|----2--------3------4------6---------------------------|
B|----4--------4------5------8---------------------------|
G|----4--------5------6------8---------------------------|
D|----4--------5------6------8---------------------------|
A|----2--------3------5------6---------------------------|
E|----x--------x------x------x---------------------------|

        B            Cm       C#m        Eb
e|----2-2-2-2-----3-3-3-3---4-4-4-4---6-6-6-6------------------------|
B|----4-4-4-4-----4-4-4-4---5-5-5-5---8-8-8-8------------------------|
G|----4-4-4-4-----5-5-5-5---6-6-6-6---8-8-8-8------------------------|
D|----4-4-4-4-----5-5-5-5---6-6-6-6---8-8-8-8------------------------|
A|----2-2-2-2-----3-3-3-3---5-5-5-5---6-6-6-6------------------------|
E|----x-x-x-x-----x-x-x-x---x-x-x-x---x-x-x-x------------------------|

Gtr-1

e|---13-121212-111111-101010-999-888-777-666-555-444-333-222-1------------|
B|------------------------------------------------------------------------|
G|------------------------------------------------------------------------|
D|------------------------------------------------------------------------|
A|------------------------------------------------------------------------|
E|------------------------------------------------------------------------|

Refrain


gtr-2

   B      C     C#              B     C       C#
e|----------------------------------------------------------------|
B|----------------------------------------------------------------|
G|-44-----5----666666666-------44-----5----666666666--------------|
D|-44-----5----666666666-------44-----5----666666666------------- |
A|-22-----3----444444444-------22-----3----444444444--------------|
E|--------------------------------------------------------------- |


  B               C            C#
e|-------------------------------------------------------------|
B|-------------------------------------------------------------|
G|-44444444-----55555555----66666666666666---------------------|
D|-44444444-----55555555----66666666666666-------------------- |
A|-22222222-----33333333----44444444444444---------------------|
E|------------------------------------------------------------ |


 B               C            C#                 Eb             C#
e|-------------------------------------------------------------------------|
B|-------------------------------------------------------------------------|
G|-44444444-----55555555----66666666666666------8xxxx8-----66666666666666--|
D|-44444444-----55555555----66666666666666------8xxxx8-----66666666666666- |
A|-22222222-----33333333----44444444444444------6xxxx6-----44444444444444--|
E|-------------------------------------------------------------------------|


 B      C     C#
B|-------------|
G|-44-----5----|
D|-44-----5----|
A|-22-----3----|
E|-------------|


   B                          Cm                C#m              Eb
e|-2-2-2-2-2-2-2-2----3-3-3-3-3-3-3-3-------4-4-4-4-4-4-4-4---6-6-6-6-6------------------------|
B|-4-4-4-4-4-4-4-4----4-4-4-4-4-4-4-4-------5-5-5-5-5-5-5-5---8-8-8-8-8------------------------|
G|-4-4-4-4-4-4-4-4----5-5-5-5-5-5-5-5-------6-6-6-6-6-6-6-6---8-8-8-8-8------------------------|
D|-4-4-4-4-4-4-4-4----5-5-5-5-5-5-5-5-------6-6-6-6-6-6-6-6---8-8-8-8-8------------------------|
A|-2-2-2-2-2-2-2-2----3-3-3-3-3-3-3-3-------5-5-5-5-5-5-5-5---6-6-6-6-6------------------------|
E|-x-x-x-x-x-x-x-x----x-x-x-x-x-x-x-x-------x-x-x-x-x-x-x-x---x-x-x-x-x------------------------|

gtr-1

e|---8-12-11-11-11-11s13-11-9-8--------b17-16-15-14-15-16-17-b18~-b19~--|
B|------------------------------9~~-------------------------------------|
G|----------------------------------------------------------------------|
D|----------------------------------------------------------------------|
A|----------------------------------------------------------------------|
E|----------------------------------------------------------------------|


e|-----18~--16-16~--------12-13-11~---17-15-14-------15-17-19-b19-b17-b15-b18--|
B|------------------12s14----------------------16-17---------------------------|
G|-----------------------------------------------------------------------------|

D|-----------------------------------------------------------------------------|
A|-----------------------------------------------------------------------------|
E|-----------------------------------------------------------------------------|

gtr-2


   B       Cm                C#m
e|-2------3-3--------4-4-4-4-4-4-4-4---------------------------|
B|-4------4-4--------5-5-5-5-5-5-5-5---------------------------|
G|-4------5-5--------6-6-6-6-6-6-6-6---------------------------|
D|-4------5-5--------6-6-6-6-6-6-6-6---------------------------|
A|-2------3-3--------5-5-5-5-5-5-5-5---------------------------|
E|-x------x-x--------x-x-x-x-x-x-x-x---------------------------|

   B                          Cm                C#m
e|-2-2-2-2-2-2-2-2----3-3-3-3-3-3-3-3-------4-4-4-4-4-4-4-4---------------------------|
B|-4-4-4-4-4-4-4-4----4-4-4-4-4-4-4-4-------5-5-5-5-5-5-5-5---------------------------|
G|-4-4-4-4-4-4-4-4----5-5-5-5-5-5-5-5-------6-6-6-6-6-6-6-6---------------------------|
D|-4-4-4-4-4-4-4-4----5-5-5-5-5-5-5-5-------6-6-6-6-6-6-6-6---------------------------|
A|-2-2-2-2-2-2-2-2----3-3-3-3-3-3-3-3-------5-5-5-5-5-5-5-5---------------------------|
E|-x-x-x-x-x-x-x-x----x-x-x-x-x-x-x-x-------x-x-x-x-x-x-x-x---------------------------|


   B                          Cm                C#m                   Eb               C#m
e|-2-2-2-2-2-2-2-2----3-3-3-3-3-3-3-3-------4-4-4-4-4-4-4-4--------6-6-6-6-6-------4-4-4-4-4-4-4-4----------|
B|-4-4-4-4-4-4-4-4----4-4-4-4-4-4-4-4-------5-5-5-5-5-5-5-5--------8-8-8-8-8-------5-5-5-5-5-5-5-5----------|
G|-4-4-4-4-4-4-4-4----5-5-5-5-5-5-5-5-------6-6-6-6-6-6-6-6--------8-8-8-8-8-------6-6-6-6-6-6-6-6----------|
D|-4-4-4-4-4-4-4-4----5-5-5-5-5-5-5-5-------6-6-6-6-6-6-6-6--------8-8-8-8-8-------6-6-6-6-6-6-6-6----------|
A|-2-2-2-2-2-2-2-2----3-3-3-3-3-3-3-3-------5-5-5-5-5-5-5-5--------6-6-6-6-6-------5-5-5-5-5-5-5-5----------|
E|-x-x-x-x-x-x-x-x----x-x-x-x-x-x-x-x-------x-x-x-x-x-x-x-x--------x-x-x-x-x-------x-x-x-x-x-x-x-x----------|

                        X2


gtr-1

B      C     C#              B     C       C#
e|----------------------------------------------------------------|
B|----------------------------------------------------------------|
G|-44-----5----666666666-------44-----5----666666666--------------|
D|-44-----5----666666666-------44-----5----666666666------------- |
A|-22-----3----444444444-------22-----3----444444444--------------|
E|--------------------------------------------------------------- |


  B               C            C#
e|-------------------------------------------------------------|
B|-------------------------------------------------------------|
G|-44444444-----55555555----66666666666666---------------------|
D|-44444444-----55555555----66666666666666-------------------- |
A|-22222222-----33333333----44444444444444---------------------|
E|------------------------------------------------------------ |


 B               C            C#                 Eb             C#
e|-------------------------------------------------------------------------|
B|-------------------------------------------------------------------------|
G|-44444444-----55555555----66666666666666------8xxxx8-----66666666666666--|
D|-44444444-----55555555----66666666666666------8xxxx8-----66666666666666- |
A|-22222222-----33333333----44444444444444------6xxxx6-----44444444444444--|
E|-------------------------------------------------------------------------|


                         X2


outro


gtr-2


 B                          Cm                C#m              Eb
e|-2-2-2-2-2-2-2-2----3-3-3-3-3-3-3-3-------4-4-4-4-4-4-4-4---6-6-6-6-6------------------------|
B|-4-4-4-4-4-4-4-4----4-4-4-4-4-4-4-4-------5-5-5-5-5-5-5-5---8-8-8-8-8------------------------|
G|-4-4-4-4-4-4-4-4----5-5-5-5-5-5-5-5-------6-6-6-6-6-6-6-6---8-8-8-8-8------------------------|
D|-4-4-4-4-4-4-4-4----5-5-5-5-5-5-5-5-------6-6-6-6-6-6-6-6---8-8-8-8-8------------------------|

        X3
E|-x-x-x-x-x-x-x-x----x-x-x-x-x-x-x-x-------x-x-x-x-x-x-x-x---x-x-x-x-x------------------------|


gtr-1

      B            C            C#           Eb
e|----------------------------------------------------|
B|----------------------------------------------------|
G|-44444444-----55555555----6666666------88888888-----|
D|-44444444-----55555555----6666666------88888888-----|
A|-22222222-----33333333----4444444------68888886-----|
E|----------------------------------------------------|


X3


END

\\\\\\\\\\\\\\\\\\\\\\\\\\\\\\\\\\\\\\\\\\\\\\\\\\\\\\\\\\\\\\\\\\\\\\\\\\\\\\\\\\\\\\\\\\\

yun poh...  enjoy poh... paki understand nalng ng mabuti..
paki rate naman poh! I worked hard for it!

hi ulit sa bebe koh!! mahal na mahal kita!!! ingat ka lagi...																																																																													tf_artist = "Sponge Cola";											tf_song = "Tuliro";																															         																																																																																																		

Tablature player for this song:
 
 
Sponge Cola - Tuliro Tab :: indexed at Ultimate Guitar.
Tuliro tabs @ 911Tabs

About the artist behind Tuliro Tab:

Sponge Cola is a Filipino rock band formed in 2002.

Indexed at Wikipedia.

Show us your talent, perform Tuliro Tab!

Here you can post a video or audio performance. Tell me more ...
Where can we find your performance? Tell me more ...
Your comment:
Please, log in to post your performance.