Artists by letter: A B C D E F G H I J K L M N O P Q R S T U V W X Y Z 0-9
 
Perfidia Tab
PERFIDIA


INTRO



e|---------------------------------|---------------------------------|
B|---------------------------------|---------------------------------|
G|---------------------------------|---------------------------------|
D|---------------------------------|---------------------------------|
A|---------------------------------|-----------------0---0---2---2---|
E|---------------------------------|---------3---3-------------------|



   C               Em/B              Dm/A        G
e|---------------------------------|---------------------------------|
B|---------------------------------|---------------------------------|
G|---------------------------------|---------------------------------|
D|---------------------------------|---------------------------------|
A|-3-------------------------------|---------------------------------|
E|---------------------------------|---------------------------------|



   C               Em/B              Dm/A        G
e|---------------------------------|---------------------------------|
B|---------------------------------|-------------------------0-------|
G|---------------------------------|---------------------------------|
D|---------------------------------|---------------------------------|
A|---------------------------------|---------------------------------|
E|---------------------------------|---------------------------------|



VERSE



   C               Am                Dm              G
e|---------------------------------|---------------------------------|
B|-1-------------------------------|-------------0---1---3---1---0---|
G|---------------------------------|---------------------------------|
D|---------------------------------|---------------------------------|
A|---------------------------------|---------------------------------|
E|---------------------------------|---------------------------------|



   C               Am                Dm              G
e|---------------------------------|---------------------------------|
B|-----1-------0-------------------|-------------0---1---3---1---0---|
G|-----------------2---------------|---------------------------------|
D|---------------------------------|---------------------------------|
A|---------------------------------|---------------------------------|
E|---------------------------------|---------------------------------|



   C               Am                F               G
e|---------------------------------|---------------------------------|
B|-1---0-----------1---------------|---------------------------------|
G|-------------2---------------2---|-0-----------0---2---------------|
D|---------------------------------|-----3-------------------3-------|
A|---------------------------------|---------------------------------|
E|---------------------------------|---------------------------------|



   E                                 G
e|-0-------------------------------|-----3---3---3---3---3---3-------|
B|-0-------------------------------|-----3---3---3---3---3---3---0---|
G|-1-------------------------------|-----4---4---4---4---4---4-------|
D|-2-------------------------------|-----5---5---5---5---5---5-------|
A|-2-------------------------------|-----5---5---5---5---5---5-------|
E|-0-------------------------------|-----3---3---3---3---3---3-------|



VERSE


   C               Am                Dm              G
e|---------------------------------|---------------------------------|
B|-1-------------------------------|-------------0---1---3---1---0---|
G|---------------------------------|---------------------------------|
D|---------------------------------|---------------------------------|
A|---------------------------------|---------------------------------|
E|---------------------------------|---------------------------------|



   C               Am                Dm              G
e|---------------------------------|---------------------------------|
B|-----1-------0-------------------|-------------0---1---3---1---0---|
G|-----------------2---------------|---------------------------------|
D|---------------------------------|---------------------------------|
A|---------------------------------|---------------------------------|
E|---------------------------------|---------------------------------|



   C               Am                F               G
e|---------------------------------|---------------------------------|
B|-1---0-----------1---------------|---------------------------------|
G|-------------2---------------2---|-0-----------0---2---------------|
D|---------------------------------|-----3---------------------------|
A|---------------------------------|-------------------------2-------|
E|---------------------------------|---------------------------------|



   C               F                 C
e|-0---------------1---------------|-0---------------0---------------|
B|-1---------------1---------------|-1-------1-----------------------|
G|-0---------------2---------------|-0-----------0-------------------|
D|-2---------------3---------------|-2-----------------------0---2---|
A|-3---------------3---------------|-3-------------------------------|
E|---------------------------------|---------------------------------|



BRIDGE


   F
e|---------------------------------|---------------------------------|
B|-------------0---1---1---1---0---|-1---1---1---0---1---0---1---3---|
G|---------2---0---2---2---2---1---|-2---2---2---1---2---1---2---4---|
D|-3---3---3-----------------------|---------------------------------|
A|---------------------------------|---------------------------------|
E|---------------------------------|---------------------------------|



   E
e|-------------0-------------------|---------------------------------|
B|-0------------0------------------|-------------------------0---1---|
G|-1-------------1-----------------|---------------------------------|
D|----------------2----------------|---------------------------------|
A|-----------------2---------------|---------------------------------|
E|------------------0--------------|---------------------------------|



   F
e|---------------------------------|---------------------------------|
B|-3---3---3---1---0---0---0-------|-0---0---0---1---0---------------|
G|-2---2---2---2---0---0---0---2---|-0---0---0---2---0---2---0-------|
D|-----------------------------3---|---------------------3---2---3---|
A|---------------------------------|-----------------------------3---|
E|---------------------------------|---------------------------------|



   E                                 G
e|---------------------------------|---------------------------------|
B|-0-------------------------------|---------------------------------|
G|-1-------------------------------|-----0---------------------------|
D|-2-------------------------------|---------3-------2-------0-------|
A|---------------------------------|---------------------------------|
E|---------------------------------|---------------------------------|



VERSE


   C               Am                Dm              G
e|---------------------------------|---------------------------------|
B|-1-------------------------------|-------------0---1---3---1---0---|
G|---------------------------------|---------------------------------|
D|---------------------------------|---------------------------------|
A|---------------------------------|---------------------------------|
E|---------------------------------|---------------------------------|



   C               Am                Dm              G
e|---------------------------------|---------------------------------|
B|-----1-------0-------------------|-------------0---1---3---1---0---|
G|-----------------2---------------|---------------------------------|
D|---------------------------------|---------------------------------|
A|---------------------------------|---------------------------------|
E|---------------------------------|---------------------------------|



   C               Am                F               G
e|---------------------------------|---------------------------------|
B|-1---0-----------1---------------|---------------------------------|
G|-------------2---------------2---|-0-----------0---2---------------|
D|---------------------------------|-----3---------------------------|
A|---------------------------------|-------------------------2-------|
E|---------------------------------|---------------------------------|


   C               F                 C               G
e|-0---------------1---------------|-0---------------3-------3-------|
B|-1---------------1---------------|-1---------------3-------3-------|
G|-0---------------2---------------|-0---------------4-------4-------|
D|-2---------------3---------------|-2---------------5-------5-------|
A|-3---------------3---------------|-3-------------------------------|
E|---------------------------------|---------------------------------|



DRUMS SOLO


   C
           x   x           X                 x   x           x
e|-0-------------------------------|---------------------------------|
B|-1-------------------------------|---------------------------------|
G|-0-------------------------------|---------------------------------|
D|-2-------------------------------|---------------------------------|
A|---------------------------------|---------------------------------|
E|---------------------------------|---------------------------------|


           x   x           X      xxxX    XXXX    xxxX    XXXX   X
e|---------------------------------|---------------------------------|
B|---------------------------------|---------------------------------|
G|---------------------------------|---------------------------------|
D|---------------------------------|---------------------------------|
A|---------------------------------|---------------------------------|
E|---------------------------------|---------------------------------|



INTERLUDE


   C               Em/B              Dm/A        G
e|---------------------------------|---------------------------------|
B|---------------------------------|---------------------------------|
G|---------------------------------|---------------------------------|
D|---------------------------------|---------------------------------|
A|---------------------------------|---------------------------------|
E|---------------------------------|---------------------------------|



   D               F#m/C#            Em/B        A
e|---------------------------------|---------------------------------|
B|---------------------------------|-----------------------------2---|
G|---------------------------------|---------------------2---4-------|
D|---------------------------------|---------2---4---5---------------|
A|---------------------------------|---------------------------------|
E|---------------------------------|---------------------------------|



VERSE


   D               Bm                Em              A
e|---------------------------------|---------------------------------|
B|-3-------------------------------|-------------2---3---5---3---2---|
G|---------------------------------|---------------------------------|
D|---------------------------------|---------------------------------|
A|---------------------------------|---------------------------------|
E|---------------------------------|---------------------------------|



   D               Bm                Em              A
e|---------------------------------|---------------------------------|
B|-----3-------2-------------------|-------------2---3---5---3---2---|
G|-----------------4---------------|---------------------------------|
D|---------------------------------|---------------------------------|
A|---------------------------------|---------------------------------|
E|---------------------------------|---------------------------------|



   D               Bm                G               A
e|---------------------------------|---------------------------------|
B|-3---2-----------3---------------|---------------------------------|
G|-------------4---------------4---|-2-----------2---4---------------|
D|---------------------------------|-----5-------------------5-------|
A|---------------------------------|---------------------------------|
E|---------------------------------|---------------------------------|


   F#                                A
e|-2-------------------------------|-----5---5---5---5---5---5-------|
B|-2-------------------------------|-----5---5---5---5---5---5---2---|
G|-3-------------------------------|-----6---6---6---6---6---6-------|
D|-4-------------------------------|-----7---7---7---7---7---7-------|
A|-4-------------------------------|-----7---7---7---7---7---7-------|
E|-2-------------------------------|-----5---5---5---5---5---5-------|



VERSE


   D               Bm                Em              A
e|---------------------------------|---------------------------------|
B|-3-------------------------------|-------------2---3---5---3---2---|
G|---------------------------------|---------------------------------|
D|---------------------------------|---------------------------------|
A|---------------------------------|---------------------------------|
E|---------------------------------|---------------------------------|



   D               Bm                Em              A
e|---------------------------------|---------------------------------|
B|-----3-------2-------------------|-------------2---3---5---3---2---|
G|-----------------4---------------|---------------------------------|
D|---------------------------------|---------------------------------|
A|---------------------------------|---------------------------------|
E|---------------------------------|---------------------------------|



   D               Bm                G               A
e|---------------------------------|---------------------------------|
B|-3---2-----------3---------------|---------------------------------|
G|-------------4---------------4---|-2-----------2---4---------------|
D|---------------------------------|-----5---------------------------|
A|---------------------------------|-------------------------4-------|
E|---------------------------------|---------------------------------|


   D               G                 D
e|-2---------------3---------------|-2---------------2---------------|
B|-3---------------3---------------|-3-------2-----------------------|
G|-2---------------3---------------|-2-----------3-------------------|
D|-4---------------5---------------|-4-----------------------2---4---|
A|---------------------------------|---------------------------------|
E|---------------------------------|---------------------------------|



BRIDGE


   G
e|-----------------3---3---3---2---|-3---3---3---2---3---2---3---0---|
B|-----------------3---3---3---2---|-3---3---3---2---3---2---3---2---|
G|-------------2---4---4---4---3---|-4---4---4---3---4---3---4-------|
D|-5---5---5-----------------------|---------------------------------|
A|---------------------------------|---------------------------------|
E|---------------------------------|---------------------------------|



   F#
e|-2-----------2-------------------|-----------------------------3---|
B|-2------------2------------------|-------------------------2---3---|
G|-3-------------3-----------------|-----------------------------4---|
D|----------------4----------------|---------------------------------|
A|-----------------4---------------|---------------------------------|
E|------------------2--------------|---------------------------------|



   G
e|-----------------2---2---2-------|-----------------2---------------|
B|-5---5---5---3---2---2---2---3---|-2---2---2---3---2---------------|
G|---------------------------------|---------------------4---2-------|
D|---------------------------------|-----------------------------5---|
A|---------------------------------|---------------------------------|
E|---------------------------------|---------------------------------|



   F#                                A
e|---------------------------------|---------------------------------|
B|-2-------------------------------|---------------------------------|
G|---------------------------------|-----2---------------------------|
D|---------------------------------|---------5-------4-------2-------|
A|---------------------------------|---------------------------------|
E|---------------------------------|---------------------------------|



VERSE


   D               Bm                Em              A
e|---------------------------------|---------------------------------|
B|-3-------------------------------|-------------2---3---5---3---2---|
G|---------------------------------|---------------------------------|
D|---------------------------------|---------------------------------|
A|---------------------------------|---------------------------------|
E|---------------------------------|---------------------------------|



   D               Bm                Em              A
e|---------------------------------|---------------------------------|
B|-----3-------2-------------------|-------------2---3---5---3---2---|
G|-----------------4---------------|---------------------------------|
D|---------------------------------|---------------------------------|
A|---------------------------------|---------------------------------|
E|---------------------------------|---------------------------------|



   D               Bm                G               A
e|---------------------------------|---------------------------------|
B|-3---2-----------3---------------|---------------------------------|
G|-------------4---------------4---|-2-----------2---4---------------|
D|---------------------------------|-----5---------------------------|
A|---------------------------------|-------------------------4-------|
E|---------------------------------|---------------------------------|


   D               G                 D
e|-2-------2-------3-------3-\-----|-10------------------------------|
B|-3-------3-------3-------3-\-----|-10------------------------------|
G|-2-------2-------4-------4-\-----|-11------------------------------|
D|-4-------4-------5-------5-\-----|-12------------------------------|
A|---------------------------------|---------------------------------|
E|---------------------------------|---------------------------------|

Tablature player for this song:
 
 
Ventures - Perfidia Tab :: indexed at Ultimate Guitar.
Perfidia tabs @ 911Tabs

About the artist behind Perfidia Tab:

The Ventures are an American instrumental rock band formed in 1958, by Don Wilson and Bob Bogle, two Tacoma, Washington masonry workers. They have also contributed to the surf music genre, though they are not strictly a surf band. In 2008, they were inducted into the Rock and Roll Hall of Fame. [1]

Indexed at Wikipedia.

Show us your talent, perform Perfidia Tab!

Here you can post a video or audio performance. Tell me more ...
Where can we find your performance? Tell me more ...
Your comment:
Please, log in to post your performance.