Artists by letter: A B C D E F G H I J K L M N O P Q R S T U V W X Y Z 0-9

I Dont Want To Set The World On Fire Tab (ver 2) - The Inkspots

 
I Dont Want To Set The World On Fire Tab
e|---------------------------------|
B|---------------------------------|
G|--------------------------2-0(0)-|
D|-----2--------2--------2--2-0(0)-|
A|---0---0----0---0----0-----------|
E|-1--------2--------3-------------|

e|------------------------------------------------------------|
B|---1---------1-------3--(3)------1---1(1)---1-2-3-----------|
G|*2---------2----4--3--------3--2---2------2-------2-----(2)-|
D|*------0-3--------------------------------------------------|
A|-----3------------------------------------------------------|
E|------------------------------------------------------------|
  I don't want to set the world on fire
  I Just want to start
  A flame in your heart

e|------------------------------------------------------------|
B|---1---------1-------3--(3)------1---1(1)---1-2-3-----------|
G|-2---------2----4--3--------3--2---2------2-----------------|

D|-------0-3----------------------------------------3-----(3)-|

A|-----3------------------------------------------------------|

E|------------------------------------------------------------|
  In my heart I have but one desire
  And that one is you 
  No other will do

e|------------------------------------------------|
B|---------3(3)-3---------3(3)--------------3-3---|
G|---0-0-0----------0-0-0-------4-4-3-3-2-2-----2-|
D|-3--------------3-------------------------------|
A|------------------------------------------------|
E|------------------------------------------------|
  I've lost all ambition 
  for worldly acclaim
  I just want to be the one you love

e|---------0(0)-0---------0(0)----------------0(0)----------|
B|------------------------------3---3---3---34-----3--------|
G|-0-2-2-2--------0-2-2-2---------4---4---4----------2(2)-1-|
D|----------------------------------------------------------|
A|----------------------------------------------------------|
E|----------------------------------------------------------|
  And with your admission
  That you feel the same
  I have reached the goal I'm dreaming of believe me
								 ___1_______2__ 
e|-------------------------------------------------|-------|-1(1)|
B|---1---------1-------3--(3)------1---1(1)---1-2-3|-------|-----|
G|-2---------2----4--3--------3--2---2------2------|------*|-----|
D|-------0-3---------------------------------------|3--(3)*|-----|
A|-----3-------------------------------------------|-------|-----|
E|-------------------------------------------------|-------|-----|
  I don't want to set the world on fire
  I just want to start
  A flame in your heart

Tablature player for this song:
 
 
The Inkspots - I Dont Want To Set The World On Fire Tab :: indexed at Ultimate Guitar.
I Dont Want To Set The World On Fire tabs @ 911Tabs

Quick tip, so you can enjoy I Dont Want To Set The World On Fire Tab even more:

YourChords.com Guitar Chords and Tabs Archive is currently indexing over 240'000 songs from 21'000+ different artists. And new chords just keep on coming in, so you will surely never run out of them.

Show us your talent, perform I Dont Want To Set The World On Fire Tab!

Here you can post a video or audio performance. Tell me more ...
Where can we find your performance? Tell me more ...
Your comment:
Please, log in to post your performance.