Artists by letter: A B C D E F G H I J K L M N O P Q R S T U V W X Y Z 0-9
 
Musibah Tab
-------------------------------------------------------------------------------
			     musibah - sweet charity
-------------------------------------------------------------------------------

Rhythm guitar

intro
e|---------------------------------------------------------------------------|
B|---------------------------------------------------------------------------|
G|--5-5-7~-------7--------5--------------4--5~~------------------------------|
D|--5-5-7~-4X----7--7--3-5--5--8--7-8-5--7~~------------------------------|
A|--3-3-5~-------5--7--3--3--5--8--7-8--3--7~~------------------------------|
E|------------------5--1-----3-6--5--6--------------------------------------|

Verse 1
e|---------------------------------------------------------------------------|
B|---------------------------------------------------------------------------|
G|-------------------------------------------------5-------------------------|
D|--------------------3------------------------5h7---7-5/3\5-----------------|
A|--5-5-3-5-------3-5---5-5-3-5--------5-5-3-5---------------5-5-3-5---------|
E|----------1-3-5------------------------------------------------------------|

e|---------------------------------------------------------------------------|
B|---------------------------------------------------------------------------|
G|-------------------------------------------------5-------------------------|
D|--------------------3------------------------5h7---7-5/3\5-----------------|
A|--5-5-3-5-------3-5---5-5-3-5--------5-5-3-5-------------------------------|
E|----------1-3-5--------------------------------------------5---------------|

Verse 2
e|---------------------------------------------------------------------------|
B|---------------------------------------------------------------------------|
G|-----7----7----5----5----7----7--------------------------------------------|
D|-----------------------------------7----7----8----8----7----7-------3-35-35|
A|--5-5--5-5--3-3--3-3--5-5--5-5--------------------------------535-35-5-----|
E|--------------------------------5-5--5-5--6-6--6-6--5-5--5-5-----5---------|

e|---------------------------------------------------------------------------|
B|---------------------------------------------------------------------------|
G|-----7----7----5----5----7----7--------------------------------------------|
D|-----------------------------------7----7----8----8----7----7-------3-35-35|
A|--5-5--5-5--3-3--3-3--5-5--5-5--------------------------------535-35-5-----|
E|--------------------------------5-5--5-5--6-6--6-6--5-5--5-5-----5---------|

Verse 3
e|---------------------------------------------------------------------------|
B|---------------------------------------------------------------------------|
G|-------------------------7----7--------------------------------------------|
D|-----5----5----3----3--------------7----7--------5-7-10--------------------|
A|----------------------5-5--5-5-------------5-7-8-3-5--8--------------------|
E|--3-3--3-3--1-1--1-1------------5-5--5-5---3-5-6---------------------------|

#Repeat verse 1

#Repeat verse 2

e|---------------------------------------------------------------------------|
B|---------------------------------------------------------------------------|
G|-------------------------7----7--------------------------------------------|
D|-----5----5----3----3--------------7----7--------5-7-10-9~~----------------|
A|----------------------5-5--5-5-------------5-7-8-3-5--8-7~~----------------|
E|--3-3--3-3--1-1--1-1------------5-5--5-5---3-5-6---------------------------|

e|---------------------------------------------------------------------------|
B|---------------------------------------------------------------------------|
G|---------------------------------------------------------------------------|
D|------------5h7-5-----------------5~--
A|--7-7-x-7-7-------7-7-x-------5-7------------------------------------------|
E|--0-0-x-0-0-------0-0-x-3-5-7----------------------------------------------|
    . . . . .       . . . . . . . .  

solo
e|---------------------------------------------------------------------------|
B|---------------------------------------------------------------------------|
G|---------------------------------------------------------------------------|
D|--4-44-4-44-4-4\5-5555555-5/4-44-4-44-4-4\5-5555555-5/4-44-4-44-4-4\5~-7~--|
A|--4-44-4-44-4-4\5-5555555-5/4-44-4-44-4-4\5-5555555-5/4-44-4-44-4-4\5~-7~--|
E|--2-22-2-22-2-2\3-3333333-3/2-22-2-22-2-2\3-3333333-3/2-22-2-22-2-2\3~-5~--|
      ..   ..   .   .......     ..   ..   .   .......     ..   ..   . 

e|---------------------------------------------------------------------------|
B|---------------------------------------------------------------------------|
G|-------------------------------5~----------7~----------------------------5~|
D|-------------------------------5~-8~-8~-7~-7~----------------------------5~|
A|--5-5-3-5---3-3--3-------------3~-8~-8~-7~-5~---5-5-3-5---3-3--3---------3~|
E|----------------6----6-6-5-6------6~-6~-5~--------------------6---6-6-5-6--|





Tablature player for this song:
 
 
Sweet Charity - Musibah Tab :: indexed at Ultimate Guitar.
Musibah tabs @ 911Tabs
People who played Sweet Charity - Musibah Tab also played these songs by Sweet Charity:
Kamelia Chords, Zakiah Chords, Teratai Chords, Doa Buat Kekasih Chords, Terharu Chords, Sejuta Wajah Chords

Quick tip, so you can enjoy Musibah Tab even more:

YourChords.com Guitar Chords and Tabs Archive is currently indexing over 240'000 songs from 21'000+ different artists. And new chords just keep on coming in, so you will surely never run out of them.

Show us your talent, perform Musibah Tab!

Here you can post a video or audio performance. Tell me more ...
Where can we find your performance? Tell me more ...
Your comment:
Please, log in to post your performance.