Artists by letter: A B C D E F G H I J K L M N O P Q R S T U V W X Y Z 0-9

 
Rock Lobster Tab
Family Guy Rock Lobster
Tabbed by SirCuts

e|-------------------------333--------------------|
B|-----1-----1-------------000--------------------|
G|-----0-----0--1---1--0---000--------------------|
D|----------------3--------000--------------------|
A|--3-----1---------------------------------------|
E|-------------------------333----------repeat 8x-|


e|------------------------------------------------|
B|------------------------------------------------|
G|--12--10--12--10---8--8--11-11-11-12------------|
D|------------------------------------------------|
A|--10--8---10--8----6--6--9--9--9--10------------|
E|-------------------------------11----Repeat 4x--|

 
 
Peter Griffen - Rock Lobster Tab :: indexed at Ultimate Guitar.
Rock Lobster tabs @ 911Tabs
People who played Peter Griffen - Rock Lobster Tab also played these songs by Peter Griffen:
Iraq Lobster Tab, Cowboy Butt Sex Chords, Rock Lobster Tab, Rock Lobster Tab, Ding Fries Are Done Tab, Rock Lobster Tab

Quick tip, so you can enjoy Rock Lobster Tab even more:

After the registration (which takes just 10 seconds, remember?) you will be able to use your profile - your very own piece of YourChords.com.

Show us your talent, perform Rock Lobster Tab!

Here you can post a video or audio performance. Tell me more ...
Where can we find your performance? Tell me more ...
Your comment:
Please, log in to post your performance.