Artists by letter: A B C D E F G H I J K L M N O P Q R S T U V W X Y Z 0-9

 
State Of Emergency Tab
                    state of emergency
                     papa roach 2009              DROP D  DADGBE
intro x4
1--------------------0-----------------------0--------------3/4\3-----------|
2----3-----5---3------------3-----5---3-------------3----5---------5--------|
3---------------------------------------------------------------------------|
4--2----2---------2------0-----0----------0---------------------------------|
5------------------------------------------------0-----0--------------------|
6---------------------------------------------------------------------------|

1------------------------------------------------|
2------3------5----0-----3-----------------------|
3------------------------------------------------|
4---2-----2-----------2--------------------------|
5------------------------------------------------|
6------------------------------------------------|
____________________________________________________________________________

chorus  x2
1----------------------------------------------------------------|
2----------------------------------------------------------------|
3----------------------------------------------------------------|
4--2----5----7-----2----7----9-----2----5----7-----3----2--------|
5--2-x7-5-x4-7-x4--2-x7-7-x4-9-x4--2-x7-5-x4-7-x4--3-x7-2-x7-----|
6--2----5----7-----2----7----9-----2----5----7-----3----2--------|
____________________________________________________________________________
repeat intro x4
repeat chorus x2
____________________________________________________________________________
breakdown x4
1------------------------------------------------|
2--17/19\17--15--12-------14--12--10--12---14----|
3------------------------------------------------|
4------------------------------------------------|
5------------------------------------------------|
6------------------------------------------------|
____________________________________________________________________________
repeat intro x2
repeat chorus x3
____________________________________________________________________________


thats all i got sorry about the ending i have not figured it out yet but i will. this is 
first tab so be nice please.

tab by:mike whittle

 
 
Papa Roach - State Of Emergency Tab :: indexed at Ultimate Guitar.
State Of Emergency tabs @ 911Tabs

About the artist behind State Of Emergency Tab:

Papa Roach is a four-piece rock band from Vacaville, California. They broke into the mainstream with their three times platinum major-label debut album Infest (2000). The group's success continued with later releases Lovehatetragedy (2002) and Getting Away with Murder (2004). The group's fourth major album, The Paramour Sessions, was released on September 12, 2006. Their new album, Metamorphosis, will be released in 2008.

Indexed at Wikipedia.

Show us your talent, perform State Of Emergency Tab!

Here you can post a video or audio performance. Tell me more ...
Where can we find your performance? Tell me more ...
Your comment:
Please, log in to post your performance.