Artists by letter: A B C D E F G H I J K L M N O P Q R S T U V W X Y Z 0-9
 
Home On The Range Tab
----------------------------------------------------------------------------
			     Home on the Range
----------------------------------------------------------------------------



Tabbed by: Dave S. 
Email: prime-prine@hotmail.com

Tuning: Standard



|-------3--|-5--7-----|-3p2-0--8--|--8---8------|-8-8-10------|-----|
|-3--3-----|----------|-----------|-------------|-------------|-----|
|----------|-0-----0--|-----------|-------------|---------12--|-12--|
|-------0--|----0-----|-----------|-10------10--|---------12--|-----|
|----------|----------|-----3-----|-----10------|-----10------|-----|
|----3-----|----------|-3------8--|-------------|-8-----------|-10--|


|-3--2--3--|-5--------|----------|----3--5--|-7-----3p2--|
|----------|----------|-------3--|-3--------|------------|
|----------|----------|----------|-------0--|----0-------|
|----2-----|----7-----|-7--------|----0-----|-0----------|
|-0-----0--|-5--------|----5-----|----------|------------|
|----------|-------5--|----------|-3--------|-------3----|


|-0--8---8--|--8------8-8-|-7--5--3--|-------5--|-3---------|
|-----------|-------------|----------|-7--8-----|-----------|
|-----------|-------------|-0-----0--|----------|-------0---|
|-------10--|-----10------|----0-----|----7-----|----0------|
|-3---------|-10----------|----------|-5--------|-----------|
|----8------|---------8---|----------|-------5--|-3---------|


|----------|-10----------|-8--7--5--|-7--------|------------|
|----------|-------------|----------|-------0--|-------3-3--|
|-------0--|-------------|----------|----0-----|----0-------|
|----0-----|-----12------|----7-----|-0--------|-0----------|
|----------|-10----------|-5--------|----------|------------|
|-3--------|---------10--|-------5--|----------|-------3----|


|-3--3--3--|-3--2--3--|-5--------|----------|----3--5---|
|----------|----------|----------|-------3--|-3---------|
|----------|----------|----------|----------|-------0---|
|----0-----|----2-----|----7-----|-7--------|----0------|
|----------|-0-----0--|-5--------|----5-----|-----------|
|-3-----3--|----------|-------5--|----------|-3---------|


|-7-----3p2-|-8---8---8--|-----8-8-7--|-5--3-----|----5--3---|
|-----------|------------|------------|-------7--|-8---------|
|----0------|------------|---------0--|----0-----|-----------|
|-0---------|----10------|-10---------|-0--------|-7---------|
|-----------|--------10--|------------|-------5--|-----------|
|-------3---|-8----------|-----8------|----------|----5--3---|


Just the Melody
e|--------3--5--7----3-2-0--8--8--8----8-8-10----3-3-2-3--5--|
B|--3--3-----------------------------------------------------|
G|-----------------------------------------------------------|
D|-----------------------------------------------------------|
A|-----------------------------------------------------------|
E|-----------------------------------------------------------|


e|--------3--5--7----3-2-0--8--8--8----8-8-7--5-3-2-3---5-3--|
B|--3--3-----------------------------------------------------|
G|-----------------------------------------------------------|
D|-----------------------------------------------------------|
A|-----------------------------------------------------------|
E|-----------------------------------------------------------|


e|--10----8--7--5--7----------3--3--3--3--2--3--5------------|
B|----------------------3--3---------------------------------|
G|-----------------------------------------------------------|
D|-----------------------------------------------------------|
A|-----------------------------------------------------------|
E|-----------------------------------------------------------|


e|--------3--5--7----3-2-0--8--8--8----8-8-7--5-3-2-3---5-3--|
B|--3--3-----------------------------------------------------|
G|-----------------------------------------------------------|
D|-----------------------------------------------------------|
A|-----------------------------------------------------------|
E|-----------------------------------------------------------|


Chords

   G                        C
Oh give me a home where the buffalo roam
          G            A7       D7
Where the deer and the antelope play
      G                    C
Where seldom is heard a discouraging word
        G             D7         G
And the skies are not cloudy all day
G    D7          G
Home home on the range
                       A7       D7
Where the deer and the antelope play
      G                    C
Where seldom is heard a discouraging word
        G             D7         G
And the skies are not cloudy all day 


| /  slide up
| \  slide down
| h  hammer-on
| p  pull-off
| ~  vibrato
| +  harmonic
| x  Mute note
===========================================================================

Tablature player for this song:
 
 
Misc Traditional - Home On The Range Tab :: indexed at Ultimate Guitar.
Home On The Range tabs @ 911Tabs

Quick tip, so you can enjoy Home On The Range Tab even more:

After the registration (which takes just 10 seconds, remember?) you will be able to use your profile - your very own piece of YourChords.com.

Show us your talent, perform Home On The Range Tab!

Here you can post a video or audio performance. Tell me more ...
Where can we find your performance? Tell me more ...
Your comment:
Please, log in to post your performance.