Artists by letter: A B C D E F G H I J K L M N O P Q R S T U V W X Y Z 0-9
 
Beraksi Tab
Song 		: Beraksi
Artist 		: Kotak
Tabbed by	: SuGa, NT

|---------------------------------------------------------|
|---------------------------------------------------------|
|---------------------------------------------------------|
|-0-x--7/8-0-8--0-x--3/5-0-1--0-x--7/8-0-8-----0---3--5--5|
|-0-x--5/6-0-6--0-x--3/5-0-1--0-x--5/6-0-6-----0---3--5--3|
|-0-x------0----0-x--3/5-0-1--0-x------0-------0---3--5---|

|---------------------------------------------------------|
|---------------------------------------------------------|
|---------------------------------------------------------|
|-0-x--7/8-0-8--0-x--3/5-0-1--0-x--7/8-0-8-----0---3--5--5|  2X
|-0-x--5/6-0-6--0-x--3/5-0-1--0-x--5/6-0-6-----0---3--5--3|
|-0-x------0----0-x--3/5-0-1--0-x------0-------0---3--5---|



|---------------------------------------------------------|
|---------------------------------------------------------|
|---------------------------------------------------------|
|-------------3-3-------------5-5-------------------------|  6X
|-5-555-3-5-3-----5-555-3-5-3-----5-----------------------|
|---------------------------------------------------------|

|---------------------------------------------------------|
|---------------------------------------------------------|
|---------------------------------------------------------|
|-5-5-5-5-5-5-5-5-3-3-3-3-5-5-5-5-------------------------|
|-5-5-5-5-5-5-5-5-3-3-3-3-3-3-3-3-------------------------|
|-5-5-5-5-5-5-5-5-3-3-3-3---------------------------------|

|---------------------------------------------------------|
|---------------------------------------------------------|
|---------------------------------------------------------|
|-0-x--7/8-0-8--0-x--3/5-0-1--0-x--7/8-0-8-----0---3--5--5|
|-0-x--5/6-0-6--0-x--3/5-0-1--0-x--5/6-0-6-----0---3--5--3|
|-0-x------0----0-x--3/5-0-1--0-x------0-------0---3--5---|



|---------------------------------------------------------|
|---------------------------------------------------------|
|---------------------------------------------------------|
|-------------3-3-------------5-5-------------------------|  4X
|-5-555-3-5-3-----5-555-3-5-3-----5-----------------------|
|---------------------------------------------------------|

|---------------------------------------------------------|
|---------------------------------------------------------|
|---------------------------------------------------------|
|-5-5-5-5-5-5-5-5-3-3-3-3-5-5-5-5-------------------------|
|-5-5-5-5-5-5-5-5-3-3-3-3-3-3-3-3-------------------------|
|-5-5-5-5-5-5-5-5-3-3-3-3---------------------------------|

|-----------------   |------------------------------------|
|-----------------   |------------------------------------|
|--------------^--   |------------------------------------|
|-0-x-x-0-x-0--5--3X |-3-3-3-3-5-5-5-5--------------------|
|-0-x-x-0-x-0--3--   |-3-3-3-3-3-3-3-3--------------------|
|-0-x-x-0-x-0-----   |-3-3-3-3----------------------------|

|-----------------   |------------------------------------|
|-----------------   |------------------------------------|
|--------------^--   |------------------------------------|
|-0-x-x-0-x-0--5--3X |-3-3-3-3-5-5-5-5--------------------|
|-0-x-x-0-x-0--3--   |-3-3-3-3-3-3-3-3--------------------|
|-0-x-x-0-x-0-----   |-3-3-3-3----------------------------|



|---------------------------------------------------------|
|---------------------------------------------------------|
|---------------------------------------------------------|
|---------------------------------------------------------|
|-3/5-5-5-5-/8-8-8--1-1-1-1-3-3-3-3-----------------------|
|---------------------------------------------------------|

|---------------------------------------------------------|
|---------------------------------------------------------|
|---------------------------------------------------------|
|---------------------------------------------------------|
|-3/5-5-5-5-/8-8-8--1-1-1-1-------------------------------|
|---------------------------5-5-5-5-----------------------|

|---------------------------------------------------------|
|---------------------------------------------------------|
|---------------------------------------------------------|
|---------------------------------------------------------|
|-3/5-5-5-5-/8-8-8--1-1-1-1-3-3-3-3-----------------------|
|---------------------------------------------------------|

|---------------------------------------------------------|
|---------------------------------------------------------|
|---------------------------------------------------------|
|---------------------------------------------------------|
|-3/5-5-5-5-/8-8-8--1-1-1-1-------------------------------|
|---------------------------5-5-5-5-----------------------|



|---------------------------------------------------------|
|---------------------------------------------------------|
|---------------------------------------------------------|
|-3/5-5-5-5-/8-8-8--1-1-1-1-3-3-3-3-----------------------|
|-3/5-5-5-5-/8-8-8--1-1-1-1-3-3-3-3-----------------------|
|---------------------------------------------------------|

|---------------------------------------------------------|
|---------------------------------------------------------|
|---------------------------------------------------------|
|-3/5-5-5-5-/8-8-8--1-1-1-1-5-5-5-5-----------------------|
|-3/5-5-5-5-/8-8-8--1-1-1-1-5-5-5-5-----------------------|
|---------------------------5-5-5-5-----------------------|

|---------------------------------------------------------|
|---------------------------------------------------------|
|---------------------------------------------------------|
|-3/5-5-5-5-/8-8-8--1-1-1-1-3-3-3-3-----------------------|
|-3/5-5-5-5-/8-8-8--1-1-1-1-3-3-3-3-----------------------|
|---------------------------------------------------------|

|---------------------------------------------------------|
|---------------------------------------------------------|
|---------------------------------------------------------|
|-3/5-5-5-5-/8-8-8--1-1-1-1-5-5-5-5-----------------------|
|-3/5-5-5-5-/8-8-8--1-1-1-1-5-5-5-5-----------------------|
|---------------------------5-5-5-5-----------------------|



|---------------------------------------------------------|
|---------------------------------------------------------|
|---------------------------------------------------------|
|-0-0--x--------------------------------------------------|
|-0-0--x-ph3----------------------------------------------|
|-0-0--x--------------------------------------------------|
  * *
|-----------------   |------------------------------------|
|-----------------   |------------------------------------|
|--------------^--   |------------------------------------|
|-0-x-x-0-x-0--5--3X |-3-3-3-3-5-5-5-5--------------------|
|-0-x-x-0-x-0--3--   |-3-3-3-3-3-3-3-3--------------------|
|-0-x-x-0-x-0-----   |-3-3-3-3----------------------------|

|-----------------   |------------------------------------|
|-----------------   |------------------------------------|
|--------------^--   |------------------------------------|
|-0-x-x-0-x-0--5--3X |-3-3-3-3-5-5-5-5--------------------|
|-0-x-x-0-x-0--3--   |-3-3-3-3-3-3-3-3--------------------|
|-0-x-x-0-x-0-----   |-3-3-3-3----------------------------|

|---------------------------------------------------------|
|---------------------------------------------------------|
|---------------------------------------------------------|
|-0-x--7/8-0-8--0-x--3/5-0-1--0-x--7/8-0-8-----0---3--5--5|  2X
|-0-x--5/6-0-6--0-x--3/5-0-1--0-x--5/6-0-6-----0---3--5--3|
|-0-x------0----0-x--3/5-0-1--0-x------0-------0---3--5---|

|---------------------------------------------------------|
|---------------------------------------------------------|
|---------------------------------------------------------|
|-0-0-----------------------------------------------------|
|-0-0-----------------------------------------------------|
|-0-0-----------------------------------------------------|
  * *

hope u  like it
thanx...plz rate it ^^

lov wid

Tablature player for this song:
 
 
Kotak - Beraksi Tab :: indexed at Ultimate Guitar.
Beraksi tabs @ 911Tabs
People who played Kotak - Beraksi Tab also played these songs by Kotak:
Masih Cinta Chords, Beraksi Tab, Pelan Pelan Saja Chords, Tinggalkan Saja Chords, Masih Cinta Chords, Selalu Cinta Chords

Quick tip, so you can enjoy Beraksi Tab even more:

After the registration (which takes just 10 seconds, remember?) you will be able to use your profile - your very own piece of YourChords.com.

Show us your talent, perform Beraksi Tab!

Here you can post a video or audio performance. Tell me more ...
Where can we find your performance? Tell me more ...
Your comment:
Please, log in to post your performance.