Artists by letter: A B C D E F G H I J K L M N O P Q R S T U V W X Y Z 0-9
 
Mmk Tab
Song:M.M.K.(Maalala Mo Kaya)
Album:Long Time Noisy
Artist:Kamikazee
Guitar Tabber:Ryan Manongdo/19/Vancouver,Ca
             rhyezkie@gmail.com(gtalk)
             no_falter0x@yahoo.com(YM,friendster,facebook&myspace)

For your any comments, questions, or suggestions, just post a comment, pm or mail me.

P.S.

Sorry guys, I don't have a lyrics for this song yet=(


Please visit my band profile as well=)

http://artists.ultimate-guitar.com/renovationunder/

Thanx..

Guitar Legends:
\ - slide
p - pull-off
h - hammer-on
~ - let it ring
x - dead string
. - palm muting

Guitar Tuning:Standard(Normal)

Verse 1 prt.1:Mga nag-kalat na larawan...
e|-----------------------------------------------------------------|
B|-----------------------------------------------------------------|
G|-----0------0--------0------0-------0-------0-------0-------0----|
D|---0---0--0---0----0---0--0---0---0---0---0---0---0---0---0---0--|
A|-5-------5-------7-------7---------------------------------------|
E|--------------------------------7--------7------8-------8--------|

------------------------------------------------------------------------|
------------------------------------------------------------------------|
-----0-------0-------0--------0--------0--------0--------0--------------|
---0---0---0---0---0---0----0---0----0---0----0---0----0---0-10101010---|
-5-------5-------7--------7----------------------------------10101010---|
-----------------------------------7--------7--------8--------8-8-8-8---|

Verse 1 prt.2:Mga...

Verse 1 prt.2:Mga...
Gtr.1
e|---------------------------|
B|---------------------------|
G|-99999-77777-44444-55555---| 2x
D|-99999-77777-44444-55555---|
A|-77777-55555-22222-33333---|
E|---------------------------|
   ..... ..... ..... .....

Gtr.2:Keyboard converted to guitar...
e|-------------      ---------------------|
B|----------12-      ----------12h13p12---|
G|-12-14-12---- 3x   -12-14-12------------|
D|------------- Then ---------------------|
A|-------------      ---------------------|
E|-------------      ---------------------|

Pre-Chorus:Parang kailan lang...
Gtr.1
e|--------------------------------------|
B|--------------------------------------|
G|-77777-55555---77777-55555------------|
D|-77777-55555---77777-55555------------|
A|-55555-33333---55555-33333--3\2-0-----|
E|----------------------------------3---|

Gtr.2
e|----------------------------------------------|
B|----------------------------------------------|
G|-77777-99999-1212---77777-12121212------------|
D|-xxxxx-xxxxx-xxxx---xxxxx-xxxxxxxx------------|
A|-55555-77777-1010---55555-10101010--3/2-0-----|
E|------------------------------------------3---|

Chorus:Dating kay-tibay natin...
Gtr.1
e|-------------------------------------|
B|-------------------------------------|
G|-------77777-555555--55555-----------|
D|-55555-77777-555555--55555-----------|
A|-55555-55555-333333--33333-3/2-0-----|
E|-33333---------------------------3---|

--------------------------------|
--------------------------------|
-------77777-555555--55555-5~---|
-55555-77777-555555--55555-5~---|
-55555-55555-333333--33333-3~---|
-33333--------------------------|

Gtr.2
e|------------------------------------------------------------|
B|------------------------------------------------------------|
G|-77777-99--77777-99---1212121212-11-9--1212121212-----------|
D|-xxxxx-xx--xxxxx-xx---xxxxxxxxxx--x-x--xxxxxxxxxx-----------|
A|-55555-77--55555-77---1010101010--9-7--1010101010-3/2-0-----|
E|--------------------------------------------------------3---|

--------------------------------------------------------|
--------------------------------------------------------|
-77777-99--77777-99---1212121212-11-9--1212121212-12~---|
-xxxxx-xx--xxxxx-xx---xxxxxxxxxx--x-x--xxxxxxxxxx-xx----|
-55555-77--55555-77---1010101010--9-7--1010101010-10~---|
--------------------------------------------------------|

Verse 2 prt.1:Mga nag-kalat na larawan...
Play Verse 1 prt.1

Verse 2 prt.2:Mga...
Gtr.1:Play verse 1 prt.2

Gtr.2:
e|------------------------------------------------|
B|------------------------------------------------|
G|------------------------------------------------| 2x
D|-999-77-55---999-77-55---444-55-77--444-55-77---| I dunno if this part is a bass line.
A|------------------------------------------------| But it sounds like a guitar part for me:p
E|------------------------------------------------|
   ... .. ..   ... .. ..   ... .. ..  ... .. ..

Repeat Pre-Chorus:

Repeat Chorus:

Bridge(Instrumentals):
Gtr.1
e|-----------------------------------------------------------------------|
B|--------0----------3-----3---3-----------0-----------------0-----------|
G|----5-----5---5--------4-------------0------0----0-----0------0---0----| 3x
D|-----------------------------------------------------------------------| Listen to the carefully
A|-----------------------------------------------------------------------| to get the timing.
E|-55---5-----5---33---3-----3---3/88----8------8-----88---8------8------| It's 
at first.

----------------------------------------|
--------0-----------3-----3---3---------|
----5-----5---5---------4---------------|
----------------------------------10~---|
----------------------------------10~---|
-55---5-----5---33----3-----3---3--8~---|

Gtr.2 Enters
e|--------------------------------------|
B|-------15~----------------15~---------|
G|-12~---------12~~---12~--------12~~---|
D|--------------------------------------|
A|--------------------------------------|
E|--------------------------------------|

Repeat Chorus:

Outro:Repeat Verse 1 prt.1
Last Chord:
e|-0~---|
B|-1~---|
G|-0~---|
D|-2~---|
A|-3~---|
E|------|

End...

Tablature player for this song:
 
 
Kamikazee - Mmk Tab :: indexed at Ultimate Guitar.
Mmk tabs @ 911Tabs

About the artist behind Mmk Tab:

Kamikazee is a rock band from the Philippines composed of Jay Contreras (Lead Vocalist), Jomal Linao (Guitars/Back-up Vocals), Led Zeppelin Tuyay (Guitars), Jason "Puto" Astete (Bass Guitar) and Allan "Bords" Burdeos (drums).

Indexed at Wikipedia.

Show us your talent, perform Mmk Tab!

Here you can post a video or audio performance. Tell me more ...
Where can we find your performance? Tell me more ...
Your comment:
Please, log in to post your performance.