Artists by letter: A B C D E F G H I J K L M N O P Q R S T U V W X Y Z 0-9
 
Cant Stop Praising Tab
Intro

Guitar I:
e|-------------------------------|
B|-------------------------------|
G|----9-xxx9/8------7-xxx7/6-----|  x4
D|----7-xxx7/6------5-xxx5/4-----|
A|----7-xxx7/6------5-xxx5/4-----|
D|-------------------------------|

Guitar II:

e|----10-10-10-------------------|-----10-10-10-10-10-10-10-10-10----|
B|----8--8--8--------------------|-----8--8--8--8--8--8--8--8--8-----|
G|----9--9--9--------------------|-----9--9--9--9--9--9--9--9--9-----|
D|-------------------------------|-----------------------------------|
A|-------------------------------|-----------------------------------|
D|-------------------------------|-----------------------------------|

Verse:


Try to find the words....
e|-------------------------------|
B|-------------------------------|
G|----9-xxx9/8------7-xxx7/6-----|  x4
D|----7-xxx7/6------5-xxx5/4-----|
A|----7-xxx7/6------5-xxx5/4-----|
D|-------------------------------|

Pre-Chorus:

             A7    D       Em
Look at the sun over the seas
              A7         D       Em
Look at your grace that covers me
        A7
Now I know
        Em
Yes I know
        A7
Now I know
             B7
I know your love has saved me

Chorus:
E        
In the morning
F#m   G                        C
I can't stop praising your name

In the evening
   B7
I can't stop praising your name
E        
In the morning
F#m   G                        C
I can't stop praising your name

In the evening
   B7
I can't stop
        A7
And I want you to know
        D
Yes I want you to know
     Em
Oh yes I
        A7
And I want you to know
        D
Yes I want you to know, Oh


Guitar I:
e|-------------------------------|
B|-------------------------------|
G|----9-xxx9/8------7-xxx7/6-----| x4
D|----7-xxx7/6------5-xxx5/4-----|
A|----7-xxx7/6------5-xxx5/4-----|
D|-------------------------------|

Lord you're so amazing
Every word you say is true
Better than the finest treasure
So glad that I found you



             A7
You held me close
     D      Em
When I was down
               A7           D         Em
Your world has turned my world around
        A7
Now I know
        Em
Yes I know
        A7
Now I know
             B7
I know how much I love you

Chorus

Bridge

e|-------------------------------------------|
B|-------------------------------------------|
G|---12-----5----6-6-6-6-6---4-4-4-4-4-------|
D|---12-----5----7-7-7-7-7---5-5-5-5-5-------|
A|----x-----x----5-5/4-4-4---3-3/2-2-2-------|
D|---12-----5--------------------------------|

Chorus 2x
 
Bridge




Tablature player for this song:
 
 
Hillsong - Cant Stop Praising Tab :: indexed at Ultimate Guitar.
Cant Stop Praising tabs @ 911Tabs

Quick tip, so you can enjoy Cant Stop Praising Tab even more:

After the registration (which takes just 10 seconds, remember?) you will be able to use your profile - your very own piece of YourChords.com.

Show us your talent, perform Cant Stop Praising Tab!

Here you can post a video or audio performance. Tell me more ...
Where can we find your performance? Tell me more ...
Your comment:
Please, log in to post your performance.