Artists by letter: A B C D E F G H I J K L M N O P Q R S T U V W X Y Z 0-9
 
No Surprise Tab
----------------------------------------------------------------------------
			     No Surprise- Daughtry
----------------------------------------------------------------------------
Tabbed by: guitarhero_05
Difficulty: novice

Tuning: Drop D

Great song  pretty simple.
Song order of intro, verse, chorus, verse, chorus 6x.   I know it doesn't play the 
6x at the end but the guitar part of the chorus is played 6 times.  Hope this is helpful.

Intro:  Played 12x with a few variations in strumming pattern but it's easy to figure 
 I use pedals to switch from the clean to the distortion when needed.

e|------------------------------------------------------------------------|
B|--------4---------------------------------------------------------------|
G|--------3---------------------------------------------------------------|
D|-1--1---1---------------------------------------------------------------|
A|-1--1---1---------------------------------------------------------------|
D|-1--1---1---------------------------------------------------------------|

Verse:  The three chords in a row are just quick down up down strokes.  I will show the 
with the first set of chords.  Just do the same thing with the rest the chords I show.

e|---------------------------------------------------------------|
B|---------------------------------------------------------------|
G|---------------------------------------------------------------|
D|-------1----------1---------1----------1-1-1-------------------|
A|-------1----------1---------1----------1-1-1-------------------|
D|-1-1-1-1----1-1-1-1---1-1-1-1----1-1-1-1-1-1-------------------|

Use the same pattern as above for each set

e|-----------------------------------------------------------|
B|-----------------------------------------------------------|
G|-----------------------------------------------------------|
D|-------8-------------10----------6----------3---------6----|
A|-------8-------------10----------6----------3---------6----|
D|-8-8-8-8----10-10-10-10----6-6-6-6----3-3-3-3---6-6-6-6----|

The other guitar plays this over the verse

e|-------------------------------------------------------------|
B|-------------------------------------------------------------|
G|-------8-----------------------------------------------------|
D|----8--8-----------------8--------------10-----------6-------|
A|----------------------8--8----------10--10--------6--6-------|
D|--8-----------------8------------10-------------6------------|

Still over verse

e|-----------------------------------------------------|
B|----------------------------------------11-----------|
G|-----------8---------------------8------10-----------|
D|------10-8--10------8--------------10-8--------------|
A|----8------------------------------------------------|
D|--8--------------------------------------------------|

Chorus:    I indicated the number of strums for each chord below

e|-------------------------------------------------------------------------|
B|-------------------------------------------------------------------------|
G|-------------------------------------------------------------------------|
D|---1-------8------10------6-------8-------1------------------------------|
A|---1-------8------10------6-------8-------1------------------------------|
D|---1-------8------10------6-------8-------1------------------------------|
     16x    16x     16x     8x     8x      1x

During chorus other guitar plays

e|-----------------------------------------------------------|
B|-9-8---------9-8-----------9-8-----------9-8----11---------|
G|-----8-----------8-10---------8--------------8-------------|
D|--------------------------------8--------------------------|
A|-----------------------------------------------------------|
D|-----------------------------------------------------------|

Still over chorus

e|-10-11-10---10-11-10-11--------|
B|-------------------------------|
G|-------------------------------|
D|-------------------------------|
A|-------------------------------|
D|-------------------------------|


Thats it...Enjoy

Tablature player for this song:
 
 
Daughtry - No Surprise Tab :: indexed at Ultimate Guitar.
No Surprise tabs @ 911Tabs

About the artist behind No Surprise Tab:

Daughtry (IPA: /ˈdoʊtriː/[4]) is an American Music Award-winning and Grammy-nominated rock band from North Carolina, formed by former American Idol finalist Chris Daughtry in 2006. Their self-titled debut album was released on November 21, 2006. The disc reached #1 for two non-consecutive weeks on the Billboard 200, outsold Idol winner Taylor Hicks' debut effort, sold more than 4 million copies and was named the number one selling album of 2007 by Billboard. Their album is also the fastest-selling debut rock album in Soundscan history.[5] The first single from the album, "It's Not Over", was the eighth most played song across all formats on U.S. radio in 2007, and their second single from the album, "Home", was the tenth most played song in the U.S. of 2007.[6]

Indexed at Wikipedia.

Show us your talent, perform No Surprise Tab!

Here you can post a video or audio performance. Tell me more ...
Where can we find your performance? Tell me more ...
Your comment:
Please, log in to post your performance.