Artists by letter: A B C D E F G H I J K L M N O P Q R S T U V W X Y Z 0-9

 
North Country Boy Tab
Song: North Country Boy
Artist: The Charlatans
Tunning: Standard
Tabbed By: Indie Nation



Key:

h  - Hammer on
p  - Pull off
s  - Slide
NH - Natural Harmonic




E||-----------------------------------------|
B||-----------------------------------------|
G||-----------9---9----------9--9-------9-9-|
D||--9h-11-11-------9h-11-11------9h-11-----|
A||-----------------------------------------|
E||-----------------------------------------|
 
-----------------------------------------|
-----------------------------------------|
-----------9---9----------9--9-------9-9-|
--9h-11-11-------9h-11-11------9h-11-----|
-----------------------------------------|
-----------------------------------------|

------------------------------------------|
-------------------------------------10---|
-----------9---9----------9--9--------9-9-|
--9h-11-11-------9h-11-11------9h-11------|
------------------------------------------|
------------------------------------------|
   
-----------------------------------------|------------------------|
-----------------------------------------|--2----2------3----3----|
-----------9---9----------9--9-------9-9-|--2----2------2----2----|
--9h-11-11-------9h-11-11------9h-11-----|--2----2------4----4----|
-----------------------------------------|--0----0------0----0----|
-----------------------------------------|------------------------|
    
------------------------|------------------------|------------------------|
--2----2------3----3----|--2----2------3----3----|--2----2------3----3----|
--2----2------2----2----|--2----2------2----2----|--2----2------2----2----|
--2----2------4----4----|--2----2------4----4----|--2----2------4----4----|
--0----0------0----0----|--0----0------0----0----|--0----0------0----0----|
------------------------|------------------------|------------------------|
                 
------------------------|------------2--------|--0----------------|
--2----2------3----3----|--2----2----2--------|--0----------------|
--2----2------2----2----|--2----2----2--------|--1----------------|
--2----2------4----4----|--2----2----4--------|--2----------------|
--0----0------0----0----|--0----0----4--------|--2----------------|
------------------------|------------2--------|--0----------------|
 
--2------------------|---9---9---9---9----------------|
--3------------------|--10--10--10--10------10----10--|
--2------------------|--11--11--11--11-------9-----9--|
--0------------------|--11--11--11--11------11----11--|
---------------0-3---|---0---0---0---0-------0-----0--|
---------------------|--------------------------------|
      
-------------------------|------------------------|------------------------|
-------3-----2-----------|--2----2------3----3----|--2----2------3----3----|
----------2--2-----------|--2----2------2----2----|--2----2------2----2----|
--2h-4-------2-----------|--2----2------4----4----|--2----2------4----4----|
-------------0-----------|--0----0------0----0----|--0----0------0----0----|
-------------------------|------------------------|------------------------|
              
------------------------|------------2--------|--0----------------|
--2----2------3----3----|--2----2----2--------|--0----------------|
--2----2------2----2----|--2----2----2--------|--1----------------|
--2----2------4----4----|--2----2----4--------|--2----------------|
--0----0------0----0----|--0----0----4--------|--2----------------|
------------------------|------------2--------|--0----------------|
  
--2------------------|---9---9---9---9----------------|
--3------------------|--10--10--10--10------10----10--|
--2------------------|--11--11--11--11-------9-----9--|
--0------------------|--11--11--11--11------11----11--|
---------------0-3---|---0---0---0---0-------0-----0--|
---------------------|--------------------------------|
               
---------12--12-----12----12-----12----|--2----------------|--0----------------|
--12h-14---------14-----------14-------|--3----------------|--0----------------|
---------------------------------------|--2----------------|--1----------------|
---------------------------------------|--4----------------|--2----------------|
---------------------------------------|--2----------------|--2----------------|
---------------------------------------|-------------------|--0----------------|
               
--2----------------|--3----------------|--2----------------|
--2----------------|--0----------------|--3----------------|
--2----------------|--0----------------|--4----------------|
--4----------------|--0----------------|--4----------------|
--4----------------|--2----------------|--2----------------|
--2----------------|--3----------------|-------------------|
   
--0--------3--------|------9---9-----------------------------|
--0--------0--------|-----10--10----------10-----------------|
--1--------0--------|------9---9--9-9h-11----11------9-------|
--2--------0--------|-----11--11----------------9-11---11p-9-|
--2--------2--------|--0---0---0-----------------------------|
--0--------3--------|----------------------------------------|
    
---------------------------12------12--|------------------------|
--14h-15-15--14--0--12h-14-----14------|--2----2------3----3----|
--14h-16-16--14------------------------|--2----2------2----2----|
--14h-16-16--14------------------------|--2----2------4----4----|
---------------------------------------|--0----0------0----0----|
---------------------------------------|------------------------|
        
------------------------|------------------------|------------2--------|
--2----2------3----3----|--2----2------3----3----|--2----2----2--------|
--2----2------2----2----|--2----2------2----2----|--2----2----2--------|
--2----2------4----4----|--2----2------4----4----|--2----2----4--------|
--0----0------0----0----|--0----0------0----0----|--0----0----4--------|
------------------------|------------------------|------------2--------|
  
--0----------------|--2------------------|---9---9---9---9----------------|
--0----------------|--3------------------|--10--10--10--10------10----10--|
--1----------------|--2------------------|--11--11--11--11-------9-----9--|
--2----------------|--0------------------|--11--11--11--11------11----11--|
--2----------------|---------------0-3---|---0---0---0---0-------0-----0--|
--0----------------|---------------------|--------------------------------|
                
---------12--12-----12----12-----12----|--2----------------|--0----------------|
--12h-14---------14-----------14-------|--3----------------|--0----------------|
---------------------------------------|--2----------------|--1----------------|
---------------------------------------|--4----------------|--2----------------|
---------------------------------------|--2----------------|--2----------------|
---------------------------------------|-------------------|--0----------------|
         
--2----------------|--3----------------|--2----------------|
--2----------------|--0----------------|--3----------------|
--2----------------|--0----------------|--4----------------|
--4----------------|--0----------------|--4----------------|
--4----------------|--2----------------|--2----------------|
--2----------------|--3----------------|-------------------|
           
--0--------3--------|
--0--------0--------|
--1--------0--------|
--2--------0--------|
--2--------2--------|
--0--------3--------|

    NH  NH  NH  NH  NH  NH  NH  NH  NH  NH   NH  NH  NH  NH  
------------------------------------------------------------|
------------------------------------------------------------|
----5---5---5---5---5---5---5---5---5---5----5---5---5---5--|
------------------------------------------------------------|
------------------------------------------------------------|
------------------------------------------------------------|

------------------------------------------|
------------------------------------------|
-----------9---9----------9--9----------9-|
--9h-11-11-------9h-11-11------9h-11-11---|
------------------------------------------|
------------------------------------------|
 
------------------------------------------|
------------------------------------------|
-----------9---9----------9--9----------9-|
--9h-11-11-------9h-11-11------9h-11-11---|
------------------------------------------|
------------------------------------------|
  
----------------------------------------|------------------------------|
----------------------------------------|--2---------------------------|
------------9---9----------9--9---------|--2---------------------0-----|
--12p-11-11-------9h-11-11---------0h-2-|--2--------0-0---0-0h-2----x--|
----------------------------------------|--0----0-3--------------------|
----------------------------------------|------------------------------|

-------------------------------|-------------------------------|
--2s--7-7-7s-5-----------------|--2s--7-7-7s-5-----------------|
--2s--7-7-7s-5-----------------|--2s--7-7-7s-5-----------------|
--2s--7-7-7s-5----------2--2-2-|--2s--7-7-7s-5----------2--2-2-|
---------------3-0------0--0-0-|---------------3-0------0--0-0-|
-------------------------------|-------------------------------|

------------------------------------|----------------------------------|
--2s--7-7-7s-5----------------------|----------------------------------|
--2s--7-7-7s-5-------0------0-------|----------------------------------|
--2s--7-7-7s-5---------0h-2----0h-2-|---------0------------------------|
---------------3-0------------------|-----4-2---4---2---0---0---0h-2---|
------------------------------------|----------------------------------|
   
------------------------------------|-----------------------------------|
------------------------------------|-----------------------------0-----|
------------------------------------|-------2-2-2--4p-2-----------0-----|
--2s-4-2----------------------------|--2h-4-------------4---2---2-0-----|
-----------2h-4---2---0---0---0-2---|-----------------------0---0---3---|
------------------------------------|-----------------------------------|
    
------------------------|------------------------|------------------------|
--2----2------3----3----|--2----2------3----3----|--2----2------3----3----|
--2----2------2----2----|--2----2------2----2----|--2----2------2----2----|
--2----2------4----4----|--2----2------4----4----|--2----2------4----4----|
--0----0------0----0----|--0----0------0----0----|--0----0------0----0----|
------------------------|------------------------|------------------------|

------------2--------|--0----------------|--2------------------|
--2----2----2--------|--0----------------|--3------------------|
--2----2----2--------|--1----------------|--2------------------|
--2----2----4--------|--2----------------|--0------------------|
--0----0----4--------|--2----------------|---------------0-3---|
------------2--------|--0----------------|---------------------|
    
---9---9---9---9----------------|---------12--12-----12----12-----12----|
--10--10--10--10------10----10--|--12h-14---------14-----------14-------|
--11--11--11--11-------9-----9--|---------------------------------------|
--11--11--11--11------11----11--|---------------------------------------|
---0---0---0---0-------0-----0--|---------------------------------------|
--------------------------------|---------------------------------------|
       
--2----------------|--0----------------|--2----------------|--3----------------|
--3----------------|--0----------------|--2----------------|--0----------------|
--2----------------|--1----------------|--2----------------|--0----------------|
--4----------------|--2----------------|--4----------------|--0----------------|
--2----------------|--2----------------|--4----------------|--2----------------|
-------------------|--0----------------|--2----------------|--3----------------|
 
--2----------------|--0--------3--------|--7---7----7----7----------|
--3----------------|--0--------0--------|--8---8----8----8----8--7--|
--4----------------|--1--------0--------|--6---6----6----6----9--7--|
--4----------------|--2--------0--------|---------------------------|
--2----------------|--2--------2--------|---------------------------|
-------------------|--0--------3--------|---------------------------|

--7---7----7----7----------|--7---7----7----7----------|
--8---8----8----8----8--7--|--8---8----8----8----8--7--|
--6---6----6----6----9--7--|--6---6----6----6----9--7--|
---------------------------|---------------------------|
---------------------------|---------------------------|
---------------------------|---------------------------|

--7---7----7----7----------|------------------------------------------|
--8---8----8----8----8--7--|------------------------------------------|
--6---6----6----6----9--7--|-----------9---9----------9--9----------9-|
---------------------------|--9h-11-11-------9h-11-11------9h-11-11---|
---------------------------|------------------------------------------|
---------------------------|------------------------------------------|
 
------------------------------------------|
------------------------------------------|
-----------9---9----------9--9----------9-|
--9h-11-11-------9h-11-11------9h-11-11---|
------------------------------------------|
------------------------------------------|
  
------------------------------------------|
------------------------------------------|
-----------9---9----------9--9----------9-|
--9h-11-11-------9h-11-11------9h-11-11---|
------------------------------------------|
------------------------------------------|

------------------------------------------||
------------------------------------------||
-----------9---9----------9--9----------9-||
--9h-11-11-------9h-11-11------9h-11-11---||
------------------------------------------||
------------------------------------------||



 
 
Charlatans - North Country Boy Tab :: indexed at Ultimate Guitar.
North Country Boy tabs @ 911Tabs
People who played Charlatans - North Country Boy Tab also played these songs by Charlatans:
Impossible Chords, Loving You Is Easy Chords, Tellin Stories Tab, Dead Love Tab, Codine Chords, Just Lookin Chords

Quick tip, so you can enjoy North Country Boy Tab even more:

If you spend just 10 seconds to register, you will be able to comment on all the chords and tabs and rate them. You will as well be able to comment on videos of your fellow guitarists and give them ratings from 1 to 5 ... And - of course - you can share your own videos with them and see what they think of you. :)
Click here to join us!

Show us your talent, perform North Country Boy Tab!

Here you can post a video or audio performance. Tell me more ...
Where can we find your performance? Tell me more ...
Your comment:
Please, log in to post your performance.