Artists by letter: A B C D E F G H I J K L M N O P Q R S T U V W X Y Z 0-9

Love Hungry Man Tab (ver 2) - Ac Dc

 
Love Hungry Man Tab
AC/DC - Love Hungry Man
Album: Highway To Hell
Transcribed by 80'smetaladdict

Tuning (low to high)
1/4th of a step down
(halfway between E A D G B E and Eb Ab Db Gb Bb Eb)


Intro and Chorus

Guitar 1
E|--2----------------|--2--------3--------|-------------------|
B|--3----------------|--3--------3--------|--2----------------|
G|--2----------------|--2--------0--------|--2----------------|
D|--0----------------|--0--------0--------|--2----------------|
A|-------------------|--------------------|--0----------------|
E|-------------------|--2--------3--------|-------------------|

guitar 2
|--------------------|--------------------|-------------------|
|---3----------------|--2-------2---------|-------------------|
|---2----------------|--3-------3---------|--2----------------|
|---0----------------|--4-------5---------|--2----------------|
|--------------------|--------------------|--0----------------|
|--------------------|--------------------|-------------------|

                     I don't no what your name is...
|------------------|-------------------|------------------|------------------|
|------------------|-------------------|------------------|------------------|
|------------------|--2----------------|------------------|--2---------------|
|------------------|--2----------------|------------------|--2---------------|
|------------------|--0----------------|------------------|--0---------------|
|------------------|-------------------|------------------|------------------|
                                                                       to chorus:

 Bridge:
Guitar 1
|------------------|----------------------|----------------------|
|------------------|----------------------|----------------------|
|------------------|----------------------|----------------------|
|------------------|--7--7----5--7--------|--7--7----5--7--------|
|------------------|--7--7----5--7--------|--7--7----5--7--------|
|------------------|--5--5----3--5--------|--5--5----3--5--------|
 guitar 2                           "dont want no conversation"
|------------------|----------------------|----------------------|
|------------------|----------------------|----------------------|
|------------------|--2-2-2-0-0-2--x------|--2-2-2-0-0-2-2-------|
|------------------|--2-2-2-0-0-2--x------|--2-2-2-0-0-2-2-------|
|------------------|--0-0-0-0-0-0--x------|--0-0-0-0-0-0-0-------|
|------------------|----------------------|----------------------|

SOLO                                                   b                           b
|----------------------------------------------------------------5----------------------|
|------10-10-10--12--10------10--10-10---12--10------8(10)~~~~~~~--5-8-8-5---5----------|
|-/11-----11-11--12--11--9/11----11-11---12--11---------------------------7---5-7(9)----|
|---------------------------------------------------------------------------------------|
|---------------------------------------------------------------------------------------|
|---------------------------------------------------------------------------------------|
        b      b
|---------------------------------------------------------------------------------------|
|--5-5----5-5--------------------10-10--------10~~~~/10-10-10------12--10---------------|
|-----7(9)---7(9)~~~~(6)----/11--11-11-11-12--11~~~~/11------11-11-12--12---------------|
|---------------------------------------------------------------------------------------|
|---------------------------------------------------------------------------------------|
|---------------------------------------------------------------------------------------|
       b      b                                 b
|------------------------17--17-20-17--17--------------------|
|---20(22)-20(22)~~~~~~~-------------20---17^20(22)~~~~~~----|
|------------------------------------------------------------|
|------------------------------------------------------------|
|------------------------------------------------------------|
|------------------------------------------------------------|

Guitar 1
|-----------------------------------------3-----3----3--3----------------|
|---5-----5---5--5-----6-------5----------3-----3----3--3-----1-----3----|
|---5-----5---5--5-----5-------5----------0-----0----0--0-----0-----0----|
|---5-----5---5--5-----3-------5----------0-----0----0--0-----2-----0----|
|---3-----3---3--3-------------3------------------------------3----------|
|-----------------------------------------3-----3----3--3-----------3----|

Guitar 2                   b      r                          b
|------------------------------------------------------------------------|
|------------------------------------------------------------------------|
|------------------------------------------------------------------------|
|------------------------------------------------------------------------|
|---3-----3~~~~~~~~~~~~--5(7)-----(7)^5^3-5~~~~~~~~~~~~~~~~5(7)---5---3--|
|------------------------------------------------------------------------|


1
----2-----2---2--2----3------2------2-----2--2---3------2--------|
----3-----3---3--3----3------3------3-----3--3---3------3--------|
----2-----2---2--2----0------2------2-----2--2---0------2--------|
----0-----0---0--0----0------0------0-----0--0---0------0--------|
-----------------------------------------------------------------|
----------------------3--------------------------3---------------|
2    b   hold             r                          b     r
-----------------------------------------------------------------|
-----------------------------------------------------------------|
--------------------------------------------------0-7(9)---(7)---|
----5(7)------------------(7)5------7~~~~~~~~~~~~~---------------|
-----------------------------------------------------------------|
-----------------------------------------------------------------|

1
|-----------------------------------------3-----3----3--3----------------|
|---5-----5---5--5-----6-------5----------3-----3----3--3-----1-----3----|
|---5-----5---5--5-----5-------5----------0-----0----0--0-----0-----0----|
|---5-----5---5--5-----3-------5----------0-----0----0--0-----2-----0----|
|---3-----3---3--3-------------3------------------------------3----------|
|-----------------------------------------3-----3----3--3-----------3----|
2     b              b                    b                         b
---------------------------------------------------------------5----------|
-----------------------------------------------------------------5-8(10)--|
----7(9)~~~~~~~~~~~7(9)----(7)^5-7~~~~----7-7(9)--------------------------|
--------------------------------------------------------------------------|
--------------------------------------------------------------------------|
--------------------------------------------------------------------------|


1
----------------------------------------------------------|
---2--------------3-------2----------------------3----2---|
---2--------------2-------2-----2---2---2----2---2----2---|
---2--------------0-------2-----2---2---2----2---0----2---|
---0----------------------0-----0---0---0----0--------0---|
----------------------------------------------------------| x2
2     b
-----------------5----5-----5----5---------5^10^5-5^8^5---5--------5------------|
--8-8(10)------5--8^5---8^5--8^5--8^5-88^5--------------8---5-8^5----5/10~~~~---|
--------------------------------------------------------------7-----------------|
--------------------------------------------------------------------------------|
--------------------------------------------------------------------------------|
--------------------------------------------------------------------------------|


1
----------------|-------------------------------------------------|
----------------|-------------------------------------------------|
----------------|---------2------2------2------2------2-------2---|
----------------|---------2------2------2------2------2-------2---|
----------------|---------0------0------0------0------0-------0---|
----------------|-------------------------------------------------|

2 trill . . . . . . . . . . . . . . . . . . . . . .     b
------------------------------------------------------------------|
---10(13)--10(13)-11(14)-13(16)-14(17)--15(18)-16(19)-20(22)~~~~~-|
------------------------------------------------------------------|
------------------------------------------------------------------|
------------------------------------------------------------------|
------------------------------------------------------------------|

outro solo                                                               b . . . . . . . .
|---------------------------------------------------------------------------------17-------|
|-------10--10-10-10-12---------------------10-10-10-10-10-12---10-------------------17----|
|--/11--11--11-11-11-12---11~~~~~~~~-9/111--11-11-11-11-11-12---11-----16(18)--------------|
|------------------------------------------------------------------------------------------|
|------------------------------------------------------------------------------------------|
|------------------------------------------------------------------------------------------|
. . r
-------------------------------------------------------------------------------------------------|
----------------------------------------10--10-10-10-12--10------14----14----14----14----14----14|
--(18)^16---14--16^14---14~~~~~~--/11---11--11-11-11-12--11---16(18)16(18)16(18)16(18)16(18)16(18|
---------------------16--------------------------------------------------------------------------|
-------------------------------------------------------------------------------------------------|
-------------------------------------------------------------------------------------------------|
    b           b         b         b         b  r
--------------------------------------------------------14----14----14----14----14----14----14---|
---------17---------17-------17---------17-----------17(19)17(19)17(19)17(19)17(19)17(19)17(19)--|
-16(18)-----16(18)----16(18)----16(18)-----16(18)-16---------------------------------------------|
-------------------------------------------------------------------------------------------------|
-------------------------------------------------------------------------------------------------|
-------------------------------------------------------------------------------------------------|

-----14----14----15----15----15------122------------x/////--------------------------------|
--17(19)17(19)18(10)18(20)18(20)--15(177)-----------x/////--------------------------------|
---------------------------------------------------------------------2--2--2--0--2--------|
---------------------------------------------------------------------2--2--2--0--2--------|
---------------------------------------------------------------------0--0--0-----0--------|
------------------------------------------------------------------------------3-----------|

Tablature player for this song:
 
 
Ac Dc - Love Hungry Man Tab :: indexed at Ultimate Guitar.
Love Hungry Man tabs @ 911Tabs

Quick tip, so you can enjoy Love Hungry Man Tab even more:

After the registration (which takes just 10 seconds, remember?) you will be able to use your profile - your very own piece of YourChords.com.

Show us your talent, perform Love Hungry Man Tab!

Here you can post a video or audio performance. Tell me more ...
Where can we find your performance? Tell me more ...
Your comment:
Please, log in to post your performance.