Artists by letter: A B C D E F G H I J K L M N O P Q R S T U V W X Y Z 0-9

 
The Pink Panther Tab
--hi-this-is-my-version-for-the-song-the-pink-panther--
-=-=-=-/////=-=-=-=-=-
////FxP.Co.Il/////
=-=-=-=/////-=-=-=-=-=

-=-=-=-/////=-=-=-=-=-
////YyKsHkDrK/////
=-=-=-=/////-=-=-=-=-=

e|-----------------------------------------------------------|
B|-----------------------------------------------------------|
G|-----------------------------------------------------------| 
D|----------4h5-----4h5-5p4--5--43-32-0--------------------|
A|--4h5-6h7-----6h7---------7-------------0h2----------------|
E|-----------------------------------------------------------|


e|-----------------------------------------------------------|
B|-----------------------------------------------------------|
G|-----------------------------------------------------------| 
D|----------4h5-----4h5-5p4--5--87-32-0--------------------|
A|--4h5-6h7-----6h7---------7-------------0h2----------------|
E|-----------------------------------------------------------|


e|--------0--------------------------------------------------|
B|---------3-0-----------------------------------------------|
G|-------------2-0-----32-32-32-32-0---------------------| 
D|-----------------0---------------------0h2-----------------|
A|--4567-----------------------------------------------------|
E|-----------------------------------------------------------|


|   slide down
| h  hammer-on
| p  pull-off

 
 
Yakir K - The Pink Panther Tab :: indexed at Ultimate Guitar.
The Pink Panther tabs @ 911Tabs
People who played Yakir K - The Pink Panther Tab also played these songs by Yakir K:
The Pink Panther

Quick tip, so you can enjoy The Pink Panther Tab even more:

You might want to transpose the song if it is too high or too low for you to sing. Just click the desired option while playing a song and all the chords will automatically be transponded into a new key.

Show us your talent, perform The Pink Panther Tab!

Here you can post a video or audio performance. Tell me more ...
Where can we find your performance? Tell me more ...
Your comment:
Please, log in to post your performance.