Artists by letter: A B C D E F G H I J K L M N O P Q R S T U V W X Y Z 0-9

 
Love Is Blue Tab
LOVE IS BLUE

The Ventures

VERSE

E|---------------------------------------------------------------|
B|---------------------------------------------------------------|
G|---------------------------------------------------------------|
D|-2-----0-------------------------------------------------------|
A|------------3--2-----------------3--2--3-----------------------|
E|-------------------5---3-----5-------------5---3---5-3---0-----|

E|---------------------------------------------------------------|
B|---------------------------------------------------------------|
G|---------------------------------------------------------------|
D|-2-----0-------------------------------------------------------|
A|------------3--2-----------------3--2--3-----------------------|
E|-------------------5---3-----5-------------5---4--2--4---5-----|

VERSE

E|------------------------------------------------------------------|
B|-3b5----3----1----------------------------------------------------|
G|----------------4---2---------2---5--4--5---2---------------------|
D|------------------------5-----------------------5---7-5-----------|
A|---------------------------------------------------------5--7-----|
E|------------------------------------------------------------------|

E|----------------------------------------------------------------|
B|-3b5----3----1--------------------------------------------------|
G|----------------4---2---------2---5--4--5---2-------------5-----|
D|------------------------5-----------------------6--4--6---7-----|
A|----------------------------------------------------------------|
E|----------------------------------------------------------------|

BRIDGE

E|---------------------------------------------------|
B|---------------------------------------------------|
G|---------------------------------------------------|
D|---------------------------------------------------|
A|-4-----5-----7--------4-----------7b9----7---------|
E|-------------------------5--5----------------------|

E|-----------------------------------------------------|
B|-----------------------------------------------------|
G|-----------------------------------------------------|
D|-----------------------------------------------------|
A|-4-----7--------------4--5--5------------------------|
E|-------------7-----------------------7--4--5---------|

VERSE

E|---------------------------------------------------------------|
B|---------------------------------------------------------------|
G|---------------------------------------------------------------|
D|-2-----0-------------------------------------------------------|
A|------------3--2-----------------3--2--3-----------------------|
E|-------------------5---3-----5-------------5---3---5-3---0-----|

E|----------------------------------------------------------------|
B|-3b5----3----1--------------------------------------------------|
G|----------------4---2---------2---5--4--5---2-------------5-----|
D|------------------------5-----------------------6--4--6---7-----|
A|----------------------------------------------------------------|
E|----------------------------------------------------------------|

BRIDGE

E|---------------------------------------------------|
B|-------------5--------------------5b7----5---------|
G|-6-----7--------------6----------------------------|
D|-------------------------7--7----------------------|
A|---------------------------------------------------|
E|---------------------------------------------------|

E|-----------------------------------------------------|
B|---------5-------------------------------------------|
G|-6----7--------4------4--6--7--7-----5---------------|
D|----------------------------------------6--7---------|
A|-----------------------------------------------------|
E|-----------------------------------------------------|

VERSE

E|------------------------------------------------------------------|
B|-3b5----3----1----------------------------------------------------|
G|----------------4---2---------2---5--4--5---2---------------------|
D|------------------------5-----------------------5---7-5-----------|
A|---------------------------------------------------------5--7-----|
E|------------------------------------------------------------------|

E|-10b12----10----8--7------------------8--7--8-------------------8------|
B|-----------------------10---8-----10------------10---9------9---10-----|
G|--------------------------------------------------------11-------------|
D|-----------------------------------------------------------------------|
A|-----------------------------------------------------------------------|
E|-----------------------------------------------------------------------|

 
 
Ventures - Love Is Blue Tab :: indexed at Ultimate Guitar.
Love Is Blue tabs @ 911Tabs

About the artist behind Love Is Blue Tab:

The Ventures are an American instrumental rock band formed in 1958, by Don Wilson and Bob Bogle, two Tacoma, Washington masonry workers. They have also contributed to the surf music genre, though they are not strictly a surf band. In 2008, they were inducted into the Rock and Roll Hall of Fame. [1]

Indexed at Wikipedia.

Show us your talent, perform Love Is Blue Tab!

Here you can post a video or audio performance. Tell me more ...
Where can we find your performance? Tell me more ...
Your comment:
Please, log in to post your performance.