Artists by letter: A B C D E F G H I J K L M N O P Q R S T U V W X Y Z 0-9
 
A Taste Of Honey Tab
A TASTE OF HONEY

The Ventures

INTRO

E|-2--444--55555555555-7777-5555-44444444444----------------|
B|-------------------------------------------555555-777-----|
G|----------------------------------------------------------|
D|----------------------------------------------------------|
A|----------------------------------------------------------|
E|----------------------------------------------------------|

VERSE

E|----------------------------------------------------|
B|----------------------------------------------------|
G|----6--------6--8--------6--8--9----11---9-8-6------|
D|-4--------4-----------4-----------------------------|
A|----------------------------------------------------|
E|----------------------------------------------------|

E|----------------------------------------------------|
B|----------------------------------------------------|
G|----6--------6--8--------6--8--9----11---9-8-6------|
D|-4--------4-----------4-----------------------------|
A|----------------------------------------------------|
E|----------------------------------------------------|

E|---------------------------------|
B|----5--7-5-7---------------------|
G|-6-------------6-4-6---4-2-4-----|
D|---------------------------------|
A|---------------------------------|
E|---------------------------------|

E|-0----0-------------------2----2--2---2-----|
B|-2----2------0----0-----0-2----4--4---2-----|
G|-2----2------1----1-----1-2----4--4---2-----|
D|-2----2------3----3-----3-------------------|
A|-------------4----4-----4-------------------|
E|--------------------------------------------|

VERSE

E|----------------------------------------------------|
B|----------------------------------------------------|
G|----6--------6--8--------6--8--9----11---9-8-6------|
D|-4--------4-----------4-----------------------------|
A|----------------------------------------------------|
E|----------------------------------------------------|

E|----------------------------------------------------|
B|----------------------------------------------------|
G|----6--------6--8--------6--8--9----11---9-8-6------|
D|-4--------4-----------4-----------------------------|
A|----------------------------------------------------|
E|----------------------------------------------------|

E|---------------------------------|
B|----5--7-5-7---------------------|
G|-6-------------6-4-6---4-2-4-----|
D|---------------------------------|
A|---------------------------------|
E|---------------------------------|

E|-0----0-------------------2----2--2---2-----|
B|-2----2------0----0-----0-2----4--4---2-----|
G|-2----2------1----1-----1-2----4--4---2-----|
D|-2----2------3----3-----3-------------------|
A|-------------4----4-----4-------------------|
E|--------------------------------------------|

BRIDGE

E|-12---12--10---9--7------9---9--7---5--7-----|
B|---------------------------------------------|
G|---------------------------------------------|
D|---------------------------------------------|
A|---------------------------------------------|
E|---------------------------------------------|

E|-2--444--55555555555-7777-5555-44444444444----------------|
B|-------------------------------------------555555-777-----|
G|----------------------------------------------------------|
D|----------------------------------------------------------|
A|----------------------------------------------------------|
E|----------------------------------------------------------|

VERSE

E|----------------------------------------------------|
B|----------------------------------------------------|
G|----6--------6--8--------6--8--9----11---9-8-6------|
D|-4--------4-----------4-----------------------------|
A|----------------------------------------------------|
E|----------------------------------------------------|

E|----------------------------------------------------|
B|----------------------------------------------------|
G|----6--------6--8--------6--8--9----11---9-8-6------|
D|-4--------4-----------4-----------------------------|
A|----------------------------------------------------|
E|----------------------------------------------------|

E|---------------------------------|
B|----5--7-5-7---------------------|
G|-6-------------6-4-6---4-2-4-----|
D|---------------------------------|
A|---------------------------------|
E|---------------------------------|

E|-0----0-------------------2----2--2---2-----|
B|-2----2------0----0-----0-2----4--4---2-----|
G|-2----2------1----1-----1-2----4--4---2-----|
D|-2----2------3----3-----3-------------------|
A|-------------4----4-----4-------------------|
E|--------------------------------------------|

VERSE

E|----------------------------------------------------|
B|----------------------------------------------------|
G|----6--------6--8--------6--8--9----11---9-8-6------|
D|-4--------4-----------4-----------------------------|
A|----------------------------------------------------|
E|----------------------------------------------------|

E|----------------------------------------------------|
B|----------------------------------------------------|
G|----6--------6--8--------6--8--9----11---9-8-6------|
D|-4--------4-----------4-----------------------------|
A|----------------------------------------------------|
E|----------------------------------------------------|

E|---------------------------------|
B|----5--7-5-7---------------------|
G|-6-------------6-4-6---4-2-4-----|
D|---------------------------------|
A|---------------------------------|
E|---------------------------------|

E|-0----0-------------------2----2--2---2-----|
B|-2----2------0----0-----0-2----4--4---2-----|
G|-2----2------1----1-----1-2----4--4---2-----|
D|-2----2------3----3-----3-------------------|
A|-------------4----4-----4-------------------|
E|--------------------------------------------|

BRIDGE

E|-12---12--10---9--7------9---9--7---5--7-----|
B|---------------------------------------------|
G|---------------------------------------------|
D|---------------------------------------------|
A|---------------------------------------------|
E|---------------------------------------------|

E|-2--444--55555555555-7777-5555-44444444444----------------|
B|-------------------------------------------555555-777-----|
G|----------------------------------------------------------|
D|----------------------------------------------------------|
A|----------------------------------------------------------|
E|----------------------------------------------------------|

VERSE

E|-------------------------------------------|
B|-------------------------------------------|
G|----6--------6--8--------7--------7--9-----|
D|-4--------4-----------5--------5-----------|
A|-------------------------------------------|
E|-------------------------------------------|

E|------------------------------------------------------|
B|------------------------------------------------------|
G|----7--------7--9--------7--9--10----12---10-9-7------|
D|-5--------5-----------5-------------------------------|
A|------------------------------------------------------|
E|------------------------------------------------------|

E|------------------------------------------------------|
B|------------------------------------------------------|
G|----7--------7--9--------7--9--10----12---10-9-7------|
D|-5--------5-----------5-------------------------------|
A|------------------------------------------------------|
E|------------------------------------------------------|

E|---------------------------------|
B|----6--8-6-8---------------------|
G|-7-------------7-5-7---5-3-5-----|
D|---------------------------------|
A|---------------------------------|
E|---------------------------------|

E|-1----1------------------1----1-----------------|
B|-3----3------1----1------3----3------1----1-----|
G|-3----3------2----2------3----3------2----2-----|
D|-3----3------4----4------3----3------4----4-----|
A|-------------5----5------------------5----5-----|
E|------------------------------------------------|

E|-1----1-------------------3----3--3---3------|
B|-3----3------1----1-----1-3----5--5---3------|
G|-3----3------2----2-----2-3----5--5---3------|
D|-3----3------4----4-----4--------------------|
A|-------------5----5-----5--------------------|
E|---------------------------------------------|

Tablature player for this song:
 
 
Ventures - A Taste Of Honey Tab :: indexed at Ultimate Guitar.
A Taste Of Honey tabs @ 911Tabs

About the artist behind A Taste Of Honey Tab:

The Ventures are an American instrumental rock band formed in 1958, by Don Wilson and Bob Bogle, two Tacoma, Washington masonry workers. They have also contributed to the surf music genre, though they are not strictly a surf band. In 2008, they were inducted into the Rock and Roll Hall of Fame. [1]

Indexed at Wikipedia.

Show us your talent, perform A Taste Of Honey Tab!

Here you can post a video or audio performance. Tell me more ...
Where can we find your performance? Tell me more ...
Your comment:
Please, log in to post your performance.