Artists by letter: A B C D E F G H I J K L M N O P Q R S T U V W X Y Z 0-9
 
Ill Never Let You Go Tab
Song:I'll Never Let You Go
Artist:SteelHeart
Written By:M.Matijevic
Album:SteelHeart
Tuning:Half Step Down
Contributed By Dan Zane
(Eb Ab Db Gb Bb Eb)

 Intro:Clean Electric (Mike Matijevic)
|-------------------------------------|-----------------------------------|
|---7-------7---10-----10------10-----|--7-------7---10-----10-----10-----|
|-----9---9--------9------9-------9---|----9---9--------9------9------9---|
|-0-----0-----0------0------0-------0-|0-----0-----0------0------0------0-|
|-------------------------------------|-----------------------------------|
|-------------------------------------|-----------------------------------|
|
| Gtrs II, III
|                                       
|-------------------------------------|-----------------------------------|
|-------------------------------------|-8s10------------------------------|
|-----------------------------------7-|-0s=2------------------------------|
|-----------------------------------0-|-----------------------------------|
|-------------------------------------|-----------------------------------|
|-------------------------------------|-----------------------------------|

|------------0-----0---------------------|
|------0-------0-------------5-----5-----|
|----0---7---------------5-----5-----5---|
|----------5-----0---------5-----5-----5-|
|----------------------------------------|
|----------------------------------------|
|
|    
|-7s10---------------10-12---------------|
|-1s=3----------------3--5---------------|
|----------------------------------------|
|----------------------------------------|
|----------------------------------------|
|----------------------------------------|

|---------------------------------------------|
|--------7-----7-----7-----7--------7---------|
|----------7-----7-----7-----7--------7-------|
|--5s=7------7-----7-----7-------7--------0---|
|---------------------------------------------|
|---------------------------------------------|
|
|    
|-12s14------------------------(14)-----(14)-|
|--5s=7-------------------------(7)------(7)-|
|---------------------------------------------|
|---------------------------------------------|
|---------------------------------------------|
|---------------------------------------------|

|-----------0-----0-------------------|
|-----0-------0-----------5-----5-----|
|---0---7-------------5-----5-----5---|
|---------5-----0-------5-----5-----5-|
|-------------------------------------|
|-------------------------------------|
|
| Gtr IV
|-------------------------------------|
|-------------------------------------|
|-------------------------------------|
|-------------------0h2---------------|
|-3s5---------------------------------|
|-------------------------------------|

|-----------------------------------------|
|-----7-----7-----8-7-8-7---7---10-8-7----|
|-------7-----7-----------9---7----9-7----|
|-5s7-----7-----7----------------7-----0--|
|-----------------------------------------|
|-----------------------------------------|
|
|-----------------------------------------|
|-----------------------------------------|
|-----------------------------------------|
|-2s4-------------------------------------|
|-----------------------------------------|
|-----------------------------------------|

 Verse 1
|------------------------------------|
|---7-------7---10-----10-----10-----|
|-----9---9--------9------9------9---|
|-0-----0-----0------0------0------0-|
|------------------------------------|
|------------------------------------|

|------------------------------------|---------0-----0-----------------|
|---7-------7---10-----10-----10-----|---0-------0---------5-----5-----|
|-----9---9--------9------9------9---|-0---7-----------5-----5-----5---|
|-0-----0-----0------0------0------0-|-------5-----0-----5-----5-----5-|
|------------------------------------|---------------------------------|
|------------------------------------|---------------------------------|

|-----------------------------------|---------0-----0------------------|
|-----7-----7-----7-----7-----7-----|---0-------0---------5-----5------|
|-------7-----7-----7-----7-----7---|-0---7-----------5-----5-----5----|
|-5s7-----7-----7-----7-----7-----0-|-------5-----0-----5-----5-----5--|
|-----------------------------------|----------------------------------|
|-----------------------------------|----------------------------------|

|--------------------------------------|----------------------------------|
|----7-----7-----8-7-8-7---7---10-8-7--|--7-------7---10-----10-----10----|
|------7-----7-----------9---7----9-7--|----9---9--------9------9------9--|
|5s7-----7-----7----------------7-----0|0-----0-----0------0------0------0|
|--------------------------------------|----------------------------------|
|--------------------------------------|----------------------------------|
|
| Gtrs II, II
|----------------------------------------|--------------------------------|
|----------------------------------------|--------------------------------|
|----------------------------------------|-0h2-----------2--0-------------|
|--------------------------------------0-|--------------------2s4---------|
|----------------------------------------|--------------------------------|
|----------------------------------------|--------------------------------|

|--------------------------------------------|
|----7-------7-----10-------10-----10--------|
|------9---9-----------9-------9------9------|
|-0------0-----0----------0------0------0----|
|--------------------------------------------|
|--------------------------------------------|
|
|--------------------------------------------|
|--------------------------------------------|
|-2------------0-----------------------------|
|----------------2s=4-(4)--------------------|
|-------------------------------------5-5----|
|--------------------------------------------|

|-----------0------0-------------------|
|---0----------0-----------5-----5-----|
|-0----7---------------5-----5-----5---|
|--------5-------0-------5-----5-----5-|
|--------------------------------------|
|--------------------------------------|
|
|--------------------------------------|
|--------------------------------------|
|--------------------------------------|
|--------------------0h2---------------|
|-7-5------(5)-------------------------|
|--------------------------------------|

|-------------------------------------|---------0------0------------------|
|------7-----7-----7-----7-------7----|--0---------0-----------5-----5----|
|--------7-----7-----7-----7-------7--|0----7--------------5-----5-----5--|
|-5s7------7-----7-----7------7------0|-------5------0-------5-----5-----5|
|-------------------------------------|-----------------------------------|
|-------------------------------------|-----------------------------------|
|
|--------------------------------------|----------------------------------|
|--------------------------------------|----------------------------------|
|--------------------------------------|----------------------------------|
|-2s4------------------------(4)---2-4-|--------------------0h2-----------|
|--------------------------------------|-7-5------(5)---------------------|
|--------------------------------------|----------------------------------|

                           Pre-Chorus
|-------------------------|----3----3---3---|---------------------|
|-7--(7)-------7-7-7-7-7--|----3----3---3---|-7---7-7-7-7-7-7-7-7-|
|-7--(7)-------7-7-7-7-7--|-0--0--0-0---0---|-7---7-7-7-7-7-7-7-7-|
|-7--(7)-------7-7-7-7-7--|-0--0--0-----0---|-7-7-7-7-7-7-7-7-7-7-|
|-5--(5)-5-5-5-5-5-5-5-5--|-x-----3---2-----|-5---5-----5-----5---|
|-------------------------|-3-------------3-|---------------------|
|
| Gtr IV
|-------------------------|-----------------|---------------------|
|-------------------------|-----------------|-------5-7-8-7---5-7-|
|-------------------------|-----------------|---------------------|
|-------------------------|-----------------|---------------------|
|-------------------------|-----------------|---------------------|
|-------------------------|-----------------|---------------------|

|----3----3---3---|----------------------------|
|----3----3---3---|--7---7-----5s7---7-(7)-----|
|-0--0--0-0---0---|--7---7-----5s7---7-(7)-----|
|-0--0--0-----0---|--7---7-----5s7---7-(7)-----|
|-x-----3---2-----|--5---5-5-5-3s5-5-5-(5)-----|
|-3-------------3-|------------------------19-|
|
|-----------------|----------------------------|
|-----------------|----------------------------|
|-7---------------|-(7)------------------------|
|-----------------|----------------------------|
|-----------------|----------------------------|
|-----------------|----------------------------|

|----3----3---3---|-----------------------------|
|----3----3---3---|-7---7-----------7-7-----7-7-|
|-0--0--0-0---0---|-7-7-7--7-----7--7-7--7--7-7-|
|-0--0--0-----0---|-7------------7--7-7--7--7-7-|
|-x-----3---2-----|-5------------5-------5------|
|-3-------------3-|-----------------------------|
|
|-----------------|-------12-14-15-14---12-14---|
|-----------------|-----------------------------|
|-----------------|-----------------------------|
|-----------------|-----------------------------|
|-----------------|-----------------------------|
|-----------------|-----------------------------|


|-------3--3---------------------|--------------------------|
|-------3--3-3---3---------3---3-|---7---7-----5s7---7--7--|
|--0----0--0-0---0---------3---3-|---7---7-----5s7---7--7--|
|--0----0--0-0-----0-------0---0-|---7---7-----5s7---7--7--|
|--x---------2-3-----2-(2)---3---|---5---5-5-5-3s5-5-5--5--|
|--3-----------------------------|--------------------------|
|
|--------------------------------|--------------------------|
|-15--(15)-----------------------|-(15)---------------------|
|--------------------------------|--------------------------|
|--------------------------------|--------------------------|
|--------------------------------|--------------------------|
|--------------------------------|---------------------19--|

  Gtr II
|-----------------------------|-1--1-1-----1s3-3-3-(3)-------|
|--------2--2h=3----3-2---2---|-1--1-1-----1s3-3-3-(3)-------|
|--2-----2--2-------2-2---2---|-2--2-2-----2s4-4-4-(4)-------|
|--2---2-2--2h=4----4-2---2---|-3--3-3-----3s5-5-5-(5)-------|
|--0-0------0-------------0---|-0------0-0--------------------|
|-----------------------------|-------------------------------|
|
| Gtr III
|-----------------------------|-------------------------------|
|-----------------------------|-------------------------------|
|-----------------------------|-------------------------------|
|-/7-------(7)-----/7---7-----|-------------------------------|
|-------------------------7-5S|=3--3-3---0-3s5-5-5-(5)--------|
|-----------------------------|-------------------------0-3-0-|

  Gtr IV
|-----------------------|---------------------------|
|--------------------|---------------------------|
|-2-2------2--2---2-----|---------------------------|
|-------------------2-0-|---------------------------|
|-----------------------|-3--3-3---0-3s5-5-5-([5])--|
|-----------------------|---------------------------|

  Gtr IV
|-10b12==10r==10-5-8---------------10p8----|
|--------------------8b10==(8)-(8)------10-|
|------------------------------------------|
|------------------------------------------|
|------------------------------------------|
|------------------------------------------|

|----------------------------------------------|
|-12b13==(12)r(12)p10-12-10-12-10S8-10---------|
|--------------------------------------7-------|
|----------------------------------------------|
|----------------------------------------------|
|----------------------------------------------|

  Gtr II
|-----------------------|--1--1-1--------3-3-3----|
|-----2-2---2h3---3-2-2-|--1--1-1--------3-3-3----|
|-2-----2---2-----2-2-2-|--2--2-2--------4-4-4----|
|-2-2---2---2h4---4-2-2-|--3--3-3--------5-5-5----|
|-0---------0---------0-|--0-------0--0--0-0-0----|
|-----------------------|-------------------------|
|
| Gtr III
|-----------------------|-------------------------|
|-----------------------|-------------------------|
|-----------------------|-10------12-12-12--------|
|-7---7-7-7-7---7-7-7-7-|-10--x-x-12-12-12--------|
|-7---7-7-7-7---7-7-7-7-|--8------10-10-10--------|
|-5---5-5-5-5---5-5-5-5-|-------------------------|

  Gtr IV
|-10b12==10r==10-5-8---------------10p8----|
|--------------------8b10==(8)-(8)------10-|
|------------------------------------------|
|------------------------------------------|
|------------------------------------------|
|------------------------------------------|

|----------------------------------------------|
|-12b13==(12)r(12)p10-12-10-12-10S8-10---------|
|--------------------------------------7-------|
|----------------------------------------------|
|----------------------------------------------|
|----------------------------------------------|

 Chorus
|--2----2-2-3p2-0-(0)2--|--------------------|---3----3-3--3--|
|--3--3-3-3-3---3-(3)3--|-----2-----2h3-3-2--|---3----3-3--3--|
|--2----2-2-2---2-(2)2--|-2-2-2-2-2-2---2-2--|---0----0-0--0--|
|--0----0-0-0---0-(0)0--|-2-2-2-2-2-2h4-4-2--|---0----0-0--0--|
|-----------------------|-0-----0-0-0---0-0--|---x------3--x--|
|-----------------------|--------------------|---3---------3--|
|
| Gtr IV
|-----------------------|--------------------|----------------|
|-----------------------|--------------------|----------------|
|-/7---------------7s===|=2------------------|-2s4----4-2--0--|
|-----------------------|--------------------|----------------|
|-----------------------|--------------------|----------------|
|-----------------------|--------------------|----------------|

|-----2-----3p2-0-(0)-2--|--2----2-2-3p2-0-(0)2--|--------------------|
|-----3-----3---3-(3)-3--|--3--3-3-3-3---3-(3)3--|-----2-----2h3-3-2--|
|---2---2-2-2---2-(2)-2--|--2----2-2-2---2-(2)2--|-2-2-2-2-2-2---2-2--|
|-0-----2-2-0---------0--|--0----0-0-0---0-(0)0--|-2-2---2-2-2h4-4-2--|
|------------------------|-----------------------|-0-----0-0-0---0-0--|
|------------------------|-----------------------|--------------------|
|
|------------------------|-----------------------|--------------------|
|------------------------|-----------------------|--------------------|
|-2----------------------|-/7---------------7s===|=2------------------|
|------------------------|-----------------------|--------------------|
|------------------------|-----------------------|--------------------|
|------------------------|-----------------------|--------------------|

|---3----3---3--3-3-3-|-2---0-(0)-2-3p2-(2)-0---2-(2)-3----|
|---3----3---3--3-3-3-|-3-----------3----------------------|
|---0-0--0-0-0--0-0-0-|-2-2--------------------------------|
|---0-0----0-0--0-0-0-|-0----------------------------------|
|---x--------x--x-x-x-|------------------------------------|
|---3--------3--3-3-3-|------------------------------------|
|
|---------------------|------------------------------------|
|-----3------7--7-5-3-|-3----------------------------------|
|-2s4-----------------|------------------------------------|
|---------------------|------------------------------------|
|---------------------|------------------------------------|
|---------------------|------------------------------------|

|-17----------------------------------|-(17)------------------------------|
|-------------------------------------|-----------------------------------|
|-14----------------------------------|-(14)------------------------------|
|-------------------------------------|-----------------------------------|
|-------------------------------------|-----------------------------------|
|-------------------------------------|-----------------------------------|
|
| Gtr I
|  
|-------------------------------------|-----------------------------------|
|----7-------7---10-----10-----10-----|---7-------7---10-----10-----10----|
|------9---9--------9------9------9---|-----9---9--------9------9------9--|
|--0-----0-----0------0------0------0-|0------0-----0------0------0------0|
|-------------------------------------|-----------------------------------|
|-------------------------------------|-----------------------------------|

|-10---------------12---------------|---14--------------------------------|
|-----------------------------------|-------------------------------------|
|--7----------------9---------------|---11--------------------------------|
|-----------------------------------|-------------------------------------|
|-----------------------------------|-------------------------------------|
|-----------------------------------|-------------------------------------|
|
|----------0-----0------------------|-------------------------------------|
|----0-------0----------5-----5-----|------7-----7-----7-----7-----7------|
|--0---7------------5-----5-----5---|--------7-----7-----7-----7-----7----|
|--------5-----0------5-----5-----5-|-5s=7-----7-----7-----7-----7-----0--|
|-----------------------------------|-------------------------------------|
|-----------------------------------|-------------------------------------|

 Verse
|------------------------------------|
|---7-------7---10-----10-----10-----|
|-----9---9--------9------9------9---|
|-0-----0-----0------0------0------0-|
|------------------------------------|
|------------------------------------|

|------------------------------------|---------0-----0-------------------|
|---7-------7---10-----10-----10-----|---0-------0---------5-----5-------|
|-----9---9--------9------9------9---|-0---7-----------5-----5-----5-----|
|-0-----0-----0------0------0------0-|-------5-----0-----5-----5-----5---|
|------------------------------------|-----------------------------------|
|------------------------------------|-----------------------------------|

|------------------------------------|------------------------------------|
|-----7-----7-----7-----7------7-----|---7-------7---10------10-----10----|
|-------7-----7-----7-----7------7---|-----9---9---------9------9------9--|
|-5s7-----7-----7-----7-----7------0-|0------0-----0-------0------0------0|
|------------------------------------|------------------------------------|
|------------------------------------|------------------------------------|
|
|       Gtrs II, III
|------------------------------------|------------------------------------|
|------------------------------------|------------------------------------|
|------------------------------------|-0h2------------2--0----------------|
|----------------------------------0-|---------------------2s4------------|
|------------------------------------|------------------------------------|
|------------------------------------|------------------------------------|

|-----------------------------------------|
|----7-------7-----10-------10-----10-----|
|------9---9-----------9-------9------9---|
|-0------0-----0----------0------0------0-|
|-----------------------------------------|
|-----------------------------------------|
|
|-----------------------------------------|
|-----------------------------------------|
|-2------------0--------------------------|
|----------------2s=4-(4)-----------------|
|-------------------------------------5-5-|
|-----------------------------------------|

|-----------0------0-------------------|----------------------------------|
|---0----------0-----------5-----5-----|----7-----7-----7-----7------7----|
|-0----7---------------5-----5-----5---|------7-----7-----7-----7------7--|
|--------5-------0-------5-----5-----5-|5s7-----7-----7-----7------7-----0|
|--------------------------------------|----------------------------------|
|--------------------------------------|----------------------------------|
|
|--------------------------------------|----------------------------------|
|--------------------------------------|----------------------------------|
|--------------------------------------|----------------------------------|
|--------------------0h2---------------|-2s4---------------------(4)---2-4|
|-7-5------(5)-------------------------|----------------------------------|
|--------------------------------------|----------------------------------|

|-----------0------0--------------------||
|---0----------0-----------5-----5------||
|-0----7---------------5-----5-----5----||
|--------5-------0-------5-----5-----5--||
|---------------------------------------||
|---------------------------------------||
|
|---------------------------------------||
|---------------------------------------||
|---------------------------------------||
|--------------------0h2----------------||
|-7-5------(5)--------------------------||
|---------------------------------------||

|-------------------------|----3----3---3---|---------------------|
|-7--(7)-------7-7-7-7-7--|----3----3---3---|-7---7-7-7-7-7-7-7-7-|
|-7--(7)-------7-7-7-7-7--|-0--0--0-0---0---|-7---7-7-7-7-7-7-7-7-|
|-7--(7)-------7-7-7-7-7--|-0--0--0-----0---|-7-7-7-7-7-7-7-7-7-7-|
|-5--(5)-5-5-5-5-5-5-5-5--|-x-----3---2-----|-5---5-----5-----5---|
|-------------------------|-3-------------3-|---------------------|
|
| Gtr IV
|-------------------------|-----------------|---------------------|
|-------------------------|-----------------|-------5-7-8-7---5-7-|
|-------------------------|-----------------|---------------------|
|-------------------------|-----------------|---------------------|
|-------------------------|-----------------|---------------------|
|-------------------------|-----------------|---------------------|

|----3----3---3---|----------------------------|
|----3----3---3---|--7---7-----5s7---7-(7)-----|
|-0--0--0-0---0---|--7---7-----5s7---7-(7)-----|
|-0--0--0-----0---|--7---7-----5s7---7-(7)-----|
|-x-----3---2-----|--5---5-5-5-3s5-5-5-(5)-----|
|-3-------------3-|------------------------19-|
|
|-----------------|----------------------------|
|-----------------|----------------------------|
|-7---------------|-(7)------------------------|
|-----------------|----------------------------|
|-----------------|----------------------------|
|-----------------|----------------------------|

|----3----3---3---|-----------------------------|
|----3----3---3---|-7---7-----------7-7-----7-7-|
|-0--0--0-0---0---|-7-7-7--7-----7--7-7--7--7-7-|
|-0--0--0-----0---|-7------------7--7-7--7--7-7-|
|-x-----3---2-----|-5------------5-------5------|
|-3-------------3-|-----------------------------|
|
|-----------------|-------12-14-15-14---12-14---|
|-----------------|-----------------------------|
|-----------------|-----------------------------|
|-----------------|-----------------------------|
|-----------------|-----------------------------|
|-----------------|-----------------------------|

|-------3--3---------------3---3-|--------------------------|
|-------3--3-3---3---------3---3-|---7---7-----5s7---7--7--|
|--0----0--0-0---0---------0---0-|---7---7-----5s7---7--7--|
|--0----0--0-0-----0-------------|---7---7-----5s7---7--7--|
|--x---------2-3-----2-(2)---3---|---5---5-5-5-3s5-5-5--5--|
|--3-----------------------------|--------------------------|
|
|--------------------------------|--------------------------|
|-15--(15)-----------------------|-(15)---------------------|
|--------------------------------|--------------------------|
|--------------------------------|--------------------------|
|--------------------------------|--------------------------|
|--------------------------------|---------------------19--|

|-----------------------------|-1--1-1-----1s3-3-3-(3)-------|
|--------2--2h=3----3-2---2---|-1--1-1-----1s3-3-3-(3)-------|
|--2-----2--2-------2-2---2---|-2--2-2-----2s4-4-4-(4)-------|
|--2---2-2--2h=4----4-2---2---|-3--3-3-----3s5-5-5-(5)-------|
|--0-0------0-------------0---|-0------0-0--------------------|
|-----------------------------|-------------------------------|
|
| Gtr III
|-----------------------------|-------------------------------|
|-----------------------------|-------------------------------|
|-----------------------------|-------------------------------|
|-/7-------(7)-----/7---7-----|-------------------------------|
|-------------------------7-5S|=3--3-3---0-3s5-5-5-(5)--------|
|-----------------------------|-------------------------0-3-0-|

|-----------------------|---------------------------|
|--------------------|---------------------------|
|-2-2------2--2---2-----|---------------------------|
|-------------------2-0-|---------------------------|
|-----------------------|-3--3-3---0-3s5-5-5-([5])--|
|-----------------------|---------------------------|

|-----------------------|--1--1-1--------3-3-3----|
|-----2-2---2h3---3-2-2-|--1--1-1--------3-3-3----|
|-2-----2---2-----2-2-2-|--2--2-2--------4-4-4----|
|-2-2---2---2h4---4-2-2-|--3--3-3--------5-5-5----|
|-0---------0---------0-|--0-------0--0--0-0-0----|
|-----------------------|-------------------------|
|
| Gtr III
|-----------------------|-------------------------|
|-----------------------|-------------------------|
|-----------------------|-10------12-12-12--------|
|-7---7-7-7-7---7-7-7-7-|-10--x-x-12-12-12--------|
|-7---7-7-7-7---7-7-7-7-|--8------10-10-10--------|
|-5---5-5-5-5---5-5-5-5-|-------------------------|

|-22b24==(22)---(22)-17-20--------------------------------------|
|--------------------------20b22-(20)-(20)-20pb22==(20)r(20)-17-|
|---------------------------------------------------------------|
|---------------------------------------------------------------|
|---------------------------------------------------------------|
|---------------------------------------------------------------|

|-----------------------------------------------------------|
|-20b25==(20)r(20)-22-20-17---------------------------------|
|---------------------------19b21==(19)r(19)-17-19-(19)----|
|-----------------------------------------------------------|
|-----------------------------------------------------------|
|-----------------------------------------------------------|

|--2----2-2-3p2-0-(0)2--|--------------------|---3----3-3--3--|
|--3--3-3-3-3---3-(3)3--|-----2-----2h3-3-2--|---3----3-3--3--|
|--2----2-2-2---2-(2)2--|-2-2-2-2-2-2---2-2--|---0----0-0--0--|
|--0----0-0-0---0-(0)0--|-2-2-2-2-2-2h4-4-2--|---0----0-0--0--|
|-----------------------|-0-----0-0-0---0-0--|---x------3--x--|
|-----------------------|--------------------|---3---------3--|
|
| Gtr IV
|-----------------------|--------------------|----------------|
|-----------------------|--------------------|----------------|
|-/7---------------7s===|=2------------------|-2s4----4-2--0--|
|-----------------------|--------------------|----------------|
|-----------------------|--------------------|----------------|
|-----------------------|--------------------|----------------|


|-----2-----3p2-0-(0)-2--|--2----2-2-3p2-0-(0)2--|--------------------|
|-----3-----3---3-(3)-3--|--3--3-3-3-3---3-(3)3--|-----2-----2h3-3-2--|
|---2---2-2-2---2-(2)-2--|--2----2-2-2---2-(2)2--|-2-2-2-2-2-2---2-2--|
|-0-----2-2-0---------0--|--0----0-0-0---0-(0)0--|-2-2---2-2-2h4-4-2--|
|------------------------|-----------------------|-0-----0-0-0---0-0--|
|------------------------|-----------------------|--------------------|
|
|------------------------|-----------------------|--------------------|
|------------------------|-----------------------|--------------------|
|-2----------------------|-/7---------------7s===|=2------------------|
|------------------------|-----------------------|--------------------|
|------------------------|-----------------------|--------------------|
|------------------------|-----------------------|--------------------|

|---3----3---3--3-3-3-|-2---0-(0)-2-3p2-(2)-0---2-(2)-3----|
|---3----3---3--3-3-3-|-3-----------3----------------------|
|---0-0--0-0-0--0-0-0-|-2-2--------------------------------|
|---0-0----0-0--0-0-0-|-0----------------------------------|
|---x--------x--x-x-x-|------------------------------------|
|---3--------3--3-3-3-|------------------------------------|
|
|---------------------|------------------------------------|
|-----3------7--7-5-3-|-3----------------------------------|
|-2s4-----------------|------------------------------------|
|---------------------|------------------------------------|
|---------------------|------------------------------------|
|---------------------|------------------------------------|

|-2----2-2-3p2-0---(0)-2-|---------------------------|
|-3--3-3-3-3---3---(3)-3-|------2-----2h3-3--2-------|
|-2----2-2-2---2---(2)-2-|-2--2-2-2-2-2---2--2-------|
|-0----0-0-0---0---(0)-0-|-2--2---2-2-2h4-4--2-------|
|------------------------|-0------0-0-0---0--0-------|
|------------------------|---------------------------|
|
| Gtrs III, IV
|----------------5s=7----|-5-------------------------|
|-7--------------5s=7----|-5----------------(5)--8-7-|
|-7----------------------|---------------------------|
|------------------------|---------------------------|
|------------------------|---------------------------|
|------------------------|---------------------------|

|-3------3----:---2--------------*|
|-3------3----:---3--------------*|
|-0------0----:---2--------------*|
|-0------0----:---0--------------*|
|-x------x----:------------------*|
|-3------3----:------------------*|
|
|-7----/10----:-/14--------14----*|
|-8----/12----:-/15-----15-------*|
|-------------:------14----------*|
|-------------:------------------*|
|-------------:------------------*|
|-------------:------------------*|


I found this on the internet after two hours of searching, so then nobody will
have to download it now!!



Tablature player for this song:
 
 
Steelheart - Ill Never Let You Go Tab :: indexed at Ultimate Guitar.
Ill Never Let You Go tabs @ 911Tabs
People who played Steelheart - Ill Never Let You Go Tab also played these songs by Steelheart:
Shes Gone Chords, Shes Gone Acoustic Chords, Shes Gone Chords, Shes Gone Tab, Electric Chair Tab, Mama Dont You Cry Chords

Quick tip, so you can enjoy Ill Never Let You Go Tab even more:

After the registration (which takes just 10 seconds, remember?) you will be able to use your profile - your very own piece of YourChords.com.

Show us your talent, perform Ill Never Let You Go Tab!

Here you can post a video or audio performance. Tell me more ...
Where can we find your performance? Tell me more ...
Your comment:
Please, log in to post your performance.