Artists by letter: A B C D E F G H I J K L M N O P Q R S T U V W X Y Z 0-9
 
Di Na Mababawi Chords
Title        :	Di Na Mababawi
Artist       :	Sponge Cola
Album        :  Sponge Cola

Chords by    :    Mark Jesson Galera (09082360710)
Tabbed/Adlib :    Francis-Doobidoo  (09283150081)

For any Comments and Suggestions:

Text Me:     09082360710/09156169501
Email Me:    jhenson_21@rocketmail.com
Friendster:  boybassista@yahoo.com


 *Pinagcombine ko po dito un chords plus the adlib
 *Francis pinost ko na dito un adlib mo...
 *Maraming nagtatanong kung paano un strumming, bsta timing niyo nalang sa   kanta


Tuning: Standard


                 Bm  A     D            Bm      A            D
Ngayo'y aking inuunawang pilit,Mga pagkukulang kong iyong iginigiit

               Bm       A        D   A        Bm      A      
Sana'y malaman mo na tanging ikaw lamang, Ang aking iniintidi

(DO Stanza Chords)
Nakatanim pa sa king alaala, Pangako mong mananatili ka, 
Kaya't paglisan mo'y iniwan, Ang puso na ngayo'y bitin na bitin

Chorus:

 G          A               Bm           D              G
Di mo na mababawi, Iniwang sakit sa mga salitang binitiwan mo

           A                 Bm                            D
Hindi ba't ikaw  na rin ang nagpasiya,Nagtakda at siyang unang umiwas

 G        A               Bm
Bakit nga ba ako'y iyong pinaasa

(Do stanza chords)
Nasa aking guni-guni ang malaming mong tinig
Ksabay ng hangin na dumarampi, Na para bang nariyan sa aking paligid
Tahimik na nagmamasid

(repeat Chorus)

Bridge:

 A               G              Bm      A
Nahulog na'ng mga ulap, Buwan at araw, mga bituin

                  G                 Bm
Ang ginugol na panaho'y nasaan? (panaho'y nasaan)

     G                     Bm         A     
Di ba't sayang naman (sayang naman) giliw,yeah, yeah yeah

Adlib: G-Am-B-A-D-Bm-A-D-G-A-Bm-D-G-A

Adlib: Made by Francis (Doobidoo)
e|-------------3~-----2h3-2-0-2----2----5---5------2h3-2-0----|
B|--------3----3~---3--------------3----5-7-5---3----------3--|
G|------2---2-----------------------------7-------------------|
D|----0-----------------------------------0-0-----------------|
A|--------------------------------2---------------------------|
E|-3~-----------------------------------5---------------------|


e|--2---5--5-----------------10-----12------14-15-14--10-9----|
B|--3-5-5--5---------7-10-------10-----10---15-15-15--10-10---|
G|----6----------7-9------7-----------------------------------|
D|------0--0--------------------------------------------------|
A|-2----------------------------------------------------------|
E|----5-------------------------------------------------------|

e|-------10~--12-10-------------------------------------------|
B|----12------------12s14------14~----------------------------|
G|-12------------------------14~------------------------------|
D|-------------------------14~--------------------------------|
A|------------------------------------------------------------|
E|------------------------------------------------------------|

(repeat Chorus)

 G        A               Bm
Bakit nga ba ako'y iyong pinaasa


www.ultimate-guitar.com

'=================='
/   RoCk En RoLL   
'------------------'

Tablature player for this song:
 
 
Sponge Cola - Di Na Mababawi Chords :: indexed at Ultimate Guitar.
Di Na Mababawi tabs @ 911Tabs

About the artist behind Di Na Mababawi Chords:

Sponge Cola is a Filipino rock band formed in 2002.

Indexed at Wikipedia.

Show us your talent, perform Di Na Mababawi Chords!

Here you can post a video or audio performance. Tell me more ...
Where can we find your performance? Tell me more ...
Your comment:
Please, log in to post your performance.