Artists by letter: A B C D E F G H I J K L M N O P Q R S T U V W X Y Z 0-9
 
Million Miles Away Tab
===============================================================================
                      Million Miles Away - Nikki Gil
--------------------------------------------------------------------------------
Tabbed by: stephanie_7368
Email:     stephanie_7368@yahoo.com

NOTES: - measure 14, 1st chord
           Naka-bar yung hintuturo sa 'E' at 'e' string (1st and 6th string).
           Kung nahihirapan, replace it with F# ^^


INTRO
     1                                 2
     Asus2           4x2200        2x2200              D7            Asus2
     1 * * * 2 * * * 3 * * * 4 * * *   1 * * * 2 * * * 3 * * * 4 * * *
  e|-------0---------------0---------|-----------0-----------2---------|
  B|-----------0---------------0-----|-------0-------0-----2-----2-----|
  G|-----2---------2-----2---------2-|-----2-------------2-----------2-|
  D|---2---------------2-------------|---2-------------0---------------|
  A|-0-------------------------------|---------------------------------|
  E|-----------------4---------------|-2-------------------------------|

     3                                 4
                     4x2200        2x2200              D7
     1 * * * 2 * * * 3 * * * 4 * * *   1 * * * 2 * * * 3 * * * 4 * * *
  e|-------0---------------0---------|-----------0-----------2---------|
  B|-----------0---------------0-----|-------0-------0-----2-----2-----|
  G|-----2---------2-----2---------2-|-----2-------------2-------------|
  D|---2---------------2-------------|---2-------------0---------------|
  A|-0-------------------------------|---------------------------------|
  E|-----------------4---------------|-2-------------------------------|

     5
     D7
     1 * * * 2 * * *
  e|-2---------------|
  B|-2---------------|
  G|-2---------------|
  D|-0---------------|
  A|-----------------|
  E|-----------------|


VERSE I
     6                                 7
     Asus2           4x2200        2x2200              0x2200
     1 * * * 2 * * * 3 * * * 4 * * *   1 * * * 2 * * * 3 * * * 4 * * *
  e|-----------0-----------0---------|-0-----0---------------0---------|
  B|-------0-------0-----------0-----|-----0-----0---------0-----0-----|
  G|-----2---------------2---------2-|---------------2---------------2-|
  D|---2---------------2-------------|---2---------------2-------------|
  A|-0-------------------------------|---------------------------------|
  E|-----------------4---------------|-2---------------0---------------|
I'd love to make you mine              'cause it's the only way to hold

     8                                 9
     D7              C#m7              Bm7             E7sus4  E7
     1 * * * 2 * * * 3 * * * 4 * * *   1 * * * 2 * * * 3 * * * 4 * * *
  e|-------2---------------4---------|-------2---------------------0---|
  B|-----2-----2---------------5-----|-----------3-----------------0---|
  G|---2-----------------4-----------|-----2-----------2---2---1-------|
  D|-0-----------------6-------------|---4---------------0-------------|
  A|---------------0-4-------------0-|-2-------------------------------|
  E|---------------------------------|-----------------0-------0-------|
 you           in my wild ima-   gina-    tion


     10 (same as 6)                    11 (same as 7)
     Asus2           4x2200        2x2200              0x2200
     1 * * * 2 * * * 3 * * * 4 * * *   1 * * * 2 * * * 3 * * * 4 * * *
  e|-----------0-----------0---------|-0-----0---------------0---------|
  B|-------0-------0-----------0-----|-----0-----0---------0-----0-----|
  G|-----2---------------2---------2-|---------------2---------------2-|
  D|---2---------------2-------------|---2---------------2-------------|
  A|-0-------------------------------|---------------------------------|
  E|-----------------4---------------|-2---------------0---------------|
  still I don't know how                  to grab a chance and spend some

     12                                13
     D7              C#m7              Bm7             E7sus4  E7
     1 * * * 2 * * * 3 * * * 4 * * *   1 * * * 2 * * * 3 * * * 4 * * *
  e|-------2-------------------------|-------2-------------0-----------|
  B|-----2-----2-----------4---------|-----------3---------0-----------|
  G|---2-----------------4-----4-----|-----2-----------2-------1-------|
  D|-0-----------------6-------------|---4-------------0---------------|
  A|---------------0-4-------------0-|-2---------------2---------------|
  E|---------------------------------|-----------------0-------0-------|
   time in just    a simple conversa-   tion             Just give it a try


CHORUS I
     14                                15
     2xx321          D#sus2            G#m7            C#7sus4 C#7
     1 * * * 2 * * * 3 * * * 4 * * *   1 * * * 2 * * * 3 * * * 4 * * *
  e|-------1-------------------------|---------------------------------|
  B|-------2---2-----------6---------|-------4---------------7-6-------|
  G|-----3---------3-------7---------|-----4-----4---------4-----------|
  D|-------------------7-------7-----|-------------------6-------------|
  A|-----------------6---------------|---6-------------4---------------|
  E|-2-------------------------------|-4-------------------------------|
               though I'm like chasing rainbows in the sky      I wanna hold

     16                                17                    C#7
     2xx321          D@sus2            G#m7            C#7sus4
     1 * * * 2 * * * 3 * * * 4 * * *   1 * * * 2 * * * 3 * * * 4 * * *
  e|-1-----1-------------------------|-------------4-------------------|
  B|-----2-----2-----------6---------|---------------------7-6---------|
  G|---------------3-----7-----7-----|-------4-------------4-----4-----|
  D|-------------------7---------7---|-----4-----4-------6---------6---|
  A|-----------------6---------------|---6-------------4---------------|
  E|-2-------------------------------|-4-------------------------------|
      you in my dreams  and make   believe   that it's true     though I

     18                                19
     Asus2           204400            Bm7             Em7
     1 * * * 2 * * * 3 * * * 4 * * *   1 * * * 2 * * * 3 * * * 4 * * *
  e|-------0---------------0---------|-------2-------------------------|
  B|-----------0---------0-----0-----|---------------------------------|
  G|-----2---------2-----------------|-----2---------------7-----------|
  D|---2-----------------------------|---4---------------9-------------|
  A|-0-----------------------------0-|-2-------------0-7-------7-------|
  E|-----------------2---------------|---------------------------------|
     know,   I    know  that it's im- possible   to do   'cause you're a

     20 ,->(6 is barred)               21
     x6767x                            D7
     1 * * * 2 * * * 3 * * * 4 * * *   1 * * * 2 * * * 3 * * * 4 * * *
  e|---------------------------------|-------5-------5-----------------|
  B|-------7---------7---------------|-------7---7---7---7-------------|
  G|-----6-----6-----6---6-----------|-----6---------------------------|
  D|---7-----------7-7-------7-------|---7---------7-----------7-------|
  A|-6---------------6---------------|-5---------------------------5---|
  E|---------------------------------|---------------------------------|
 star                           people love you as you are       you're a

     22                                23
     C#m7                              C7              Bm7     E
     1 * * * 2 * * * 3 * * * 4 * * *   1 * * * 2 * * * 3 * * * 4 * * *
  e|-------4-------4-----------------|-------3---------2-------0-------|
  B|-------5-------5---5-------------|-----------5-----3-------0-------|
  G|-----4-----4---------4-----------|-----4-------4---2-------1-------|
  D|---6---------6-------------------|---5-------------4-------2-------|
  A|-4-----------------------4-------|-3---------------2-------2-------|
  E|---------------------------------|-------------------------0-------|
     million miles away     from me


VERSE II (same as VERSE I w/ slight variations in plucking)
  wish that you were here
  'cause it's illusions everytime you're close to me
  and sing me love songs
  and it's the only way
  I could tell the world I love you
  although you're a million miles away


CHORUS II (same as CHORUS I w/ slight variations in plucking)
  just give it a try
  though I'm like chasing rainbows in the sky
  I wanna hold you in my dreams
  and make believe that it's true
  although I know, I know
  that it's impossible to do
  'cause you're a star
  you're a star
  you're a star
  you're a million miles away from me 


ADLIB
     24                                25
     D7                                C#m7
     1 * * * 2 * * * 3 * * * 4 * * *   1 * * * 2 * * * 3 * * * 4 * * *
  e|---------------------------------|-------4---------------4---------|
  B|-------7---------------7---------|-----------5---------------5-----|
  G|-----6-----6---------6-----6-----|-----4---------4-----4-----------|
  D|---7-----------7---7-------------|---6---------------6---------6---|
  A|-5---------------5-------------0-|-4---------------4-----------4---|
  E|---------------------------------|---------------------------------|

     26
     C7              Bm7     E
     1 * * * 2 * * * 3 * * * 4 * * * 
  e|-------3-------------2---0-------|
  B|-------5---5-----3---3---0-------|
  G|-----4-------4-----2-----1-------|
  D|-5-----------------------2-------|
  A|-3---------------2-------2-------|
  E|-------------------------0-------|


(repeat CHORUS II)


OUTRO
     27                                28
     Asus2           4x2200        2x2200              D7            Asus2
     1 * * * 2 * * * 3 * * * 4 * * *   1 * * * 2 * * * 3 * * * 4 * * *
  e|-------0---------------0---------|-----------0-----------2---------|
  B|-----------0---------------0-----|-------0-------0-----2-----2-----|
  G|-----2---------2-----2---------2-|-----2-------------2-----------2-|
  D|---2---------------2-------------|---2-------------0---------------|
  A|-0-------------------------------|---------------------------------|
  E|-----------------4---------------|-2-------------------------------|
                                 from me

     29                                30
                     4x2200        2x2200              D7
     1 * * * 2 * * * 3 * * * 4 * * *   1 * * * 2 * * * 3 * * * 4 * * *
  e|-------0---------------0---------|-----------0-------------2-------|
  B|-----------0---------------0-----|-------0-------0-------------2---|
  G|-----2---------2-----2---------2-|-----2---------------2-----------|
  D|---2---------------2-------------|---2-------------0---------------|
  A|-0-------------------------------|---------------------------------|
  E|-----------------4---------------|-2-------------------------------|
                             from      me

     31 ,->(4 is barred)
     x06454
     1 * * * 2 * * * 3 * * * 4 * * *
  e|-5-------------------------------|
  B|-4-------------------------------|
  G|-5-------------------------------|
  D|-6-------------------------------|
  A|-0-------------------------------|
  E|---------------------------------|

===============================================================================

Tablature player for this song:
 
 
Nikki Gil - Million Miles Away Tab :: indexed at Ultimate Guitar.
Million Miles Away tabs @ 911Tabs

About the artist behind Million Miles Away Tab:

Nikki Gil (born August 23, 1987) is a Filipina actress, host, and singer. She is famous for doing the Asian versions of "Breaking Free" and "Gotta Go My Own Way" from the Disney Channel Original Movies, High School Musical, and High School Musical 2.

Indexed at Wikipedia.

Show us your talent, perform Million Miles Away Tab!

Here you can post a video or audio performance. Tell me more ...
Where can we find your performance? Tell me more ...
Your comment:
Please, log in to post your performance.