Artists by letter: A B C D E F G H I J K L M N O P Q R S T U V W X Y Z 0-9
 
Sweet Caroline Tab
The 1st part of the intro repeats under the 2nd & 3rd parts with a slight variation for
end of the 3rd part.

Intro:
e|--------------------------------------------------4-6-7-4-6-7--6--11--9----|
B|-------------------------5--7-9--5--7-9-7-5-9-7-5--------------------------|
G|---------------------------------------------------------------------------|
D|---------------------------------------------------------------------------|
A|4--6-7--4--6-7-6-4-7-6-4---------------------------------------------------|
E|---------------------------------------------------------------------------|

Riff A goes like this:

e|---------------------------------------------------------------------------|
B|---------------------------------------------------------------------------|
G|-7-6-----------------------------------------------------------------------|
D|-----4---------------------------------------------------------------------|
A|---------------------------------------------------------------------------|
E|---------------------------------------------------------------------------|

Riff B goes like this:

e|---------------------------------------------------------------------------|
B|---------------------------------------------------------------------------|
G|---------------------------------------------------------------------------|
D|---------------------------------------------------------------------------|
A|-9-7-6---------------------------------------------------------------------|
E|-------9-------------------------------------------------------------------|

             Sweet Caroline - Neil Diamond

Intro:

B              E
Where it began   I can't begin to knowin'
B                           F#
 But then I know it's going strong
B                 E
Was in the spring  and spring became the summer
B                              F#
 Who'd have believe you'd come along

Bridge 1:---------------------------------------
B           E                 F#
Hands         touching hands
            E                       F#
Reaching out  touching me  touching you

Chorus:-----------------------------------------
B         E (riff A)       C#              F#
Sweet Caroline  Good times never seemed so good
B           E (riff A)    C#               F#
I've been inclined   to believe they never would
(riff B)         (2nd time)
But now I'm   /   oh no no
------------------------------------------------
B                 E
Look at the night  and it don't seem so lonely
B                        F#
 We fill it up with only two
B               E
And when I hurt  Hurting runs off my shoulder
B                            F#
 How can I hurt when holding you
Bridge 2:---------------------------------------
B           E                 F#
Warm          touching warm
            E                       F#
Reachin out   touching me touching you

Repeat Chorus:----------------------------------

Repeat Intro :

B         E (riff A)       C#              F#
Sweet Caroline  Good times never seemed so good
B         E (riff A)    C#               F#
Sweet Caroline     to believe they never could

Tablature player for this song:
 
 
Neil Diamond - Sweet Caroline Tab :: indexed at Ultimate Guitar.
Sweet Caroline tabs @ 911Tabs

About the artist behind Sweet Caroline Tab:

Neil Leslie Diamond [1] (born January 24, 1941) is an American singer-songwriter and occasional actor.

Neil Diamond is one of pop music's most enduring and successful singer-songwriters. As a successful pop music performer, Diamond scored a number of hits worldwide in the 1960s, 1970s, and 1980s. Critic William Ruhlmann wrote of Diamond, "As of 2001, he claimed worldwide record sales of 115 million copies, and as of 2002 he was ranked third, behind only Elton John and Barbra Streisand, on the list of the most successful adult contemporary artists in the history of the Billboard chart."[2] As of May 2005 Diamond had sold 120 million records worldwide[citation needed], including 48 million records in the U.S.[3]

Though his record sales declined somewhat after the 1980s, Diamond continues to tour successfully, and maintains a very loyal following. Diamond's songs have been recorded by a vast array of performers from many different musical genres.

Diamond was inducted into the Songwriters Hall of Fame in 1984, and in 2000 received the Sammy Cahn Lifetime Achievement Award.

Indexed at Wikipedia.

Show us your talent, perform Sweet Caroline Tab!

Here you can post a video or audio performance. Tell me more ...
Where can we find your performance? Tell me more ...
Your comment:
Please, log in to post your performance.