Artists by letter: A B C D E F G H I J K L M N O P Q R S T U V W X Y Z 0-9

 
24 Hours Left - Brothers In Arms Tab
Drop C

this song is not finished yet
we still don't have a verse yet
so i will tab it out when i make one

intro
 Guitar 1
|---------------------------------||---------------------------------|
|---------------------------------||---------------------------------|
|---------------------------------||---------------------------------|
|---------------------------------||-----------------7-5-3-----------|
|-----5-----7-----8---7---3h5-5~--||-----5-----7-----------7-5-3-3~--|
|-0-0---0-0---0-0---0---0---------||-0-0---0-0---0-0-----------------|
  x x   x x   x x   x   x            x x   x x   x x

 Guitar 2
|---------------------------------||---------------------------------|
|---------------------------------||---------------------------------|
|---------------------------------||-----------------5-3-2-----------|
|-----3-----5-----7---5---2h3-3~--||-----3-----5-----------5-3-2-2~--|
|---------------------------------||---------------------------------|
|-0-0---0-0---0-0---0---0---------||-0-0---0-0---0-0-----------------|
  x x   x x   x x   x   x            x x   x x   x x





breakdown 2
 guitar 1
|-----------------|    |-----------------|    |-----------------|
|-------5-6-5-----|    |-------5-6-5-----|    |-------5-6-5-----|
|-----7-------7-5-| x4 |-------------7-5-| x2 |-------------7-5-| x2
|---7-------------|    |-----8-----------|    |-----7-----------|
|-5---------------|    |---8-------------|    |---7-------------|
|-----------------|    |-8---------------|    |-7---------------|
  x x x                  x x x                  x x x

 guitar 2
|-----------------|    |-----------------|    |-----------------|
|-----------------|    |-----------------|    |-----------------|
|-----7-4-5-4-----| x4 |-------5-7-5-----| x2 |-----------------| x2
|---7---------7-5-|    |-----8-------8-7-|    |-----7-7-8-7-5-7-|
|-5---------------|    |---8-------------|    |---7-------------|
|-----------------|    |-8---------------|    |-7---------------|
  x x x                  x x x                  x x x




breakdown 3
|---------------------------------||---------------------------------|
|---------------------------------||---------------------------------|
|---------------------------------||---------------------------------|
|---------------------------------||---------------------------------|
|-----3h5-----3h5-----3h5-----3h5-||-----3h5-----3h5-----3h5-----3h5-|
|-000-----000-----000-----000-----||-000-----000-----000-----000-----|
  xxx     xxx     xxx     xxx        xxx     xxx     xxx     xxx



|---------------------------------||---------------------------------|
|---------------------------------||---------------------------------|
|---------------------------------||---------------------------------|
|---------------------------------||---------------------------------|
|-----5h7-----5h7-----5h7-----5h7-||-----5h7-----5h7-----5h7-----5h7-|
|-888-----888-----888-----888-----||-777-----777-----777-----777-----|
  xxx     xxx     xxx     xxx        xxx     xxx     xxx     xxx

 
 
Misc Unsigned Bands - 24 Hours Left - Brothers In Arms Tab :: indexed at Ultimate Guitar.
24 Hours Left - Brothers In Arms tabs @ 911Tabs

Quick tip, so you can enjoy 24 Hours Left - Brothers In Arms Tab even more:

After the registration (which takes just 10 seconds, remember?) you will be able to use your profile - your very own piece of YourChords.com.

Show us your talent, perform 24 Hours Left - Brothers In Arms Tab!

Here you can post a video or audio performance. Tell me more ...
Where can we find your performance? Tell me more ...
Your comment:
Please, log in to post your performance.