Artists by letter: A B C D E F G H I J K L M N O P Q R S T U V W X Y Z 0-9

This Dying Wish - When Tiger Sharks And Dinosaurs Collide Tab - Misc Unsigned Bands


 
This Dying Wish - When Tiger Sharks And Dinosaurs Collide Tab
-------------------------------------------------------------------------------
	 When Tiger Sharks And Dinosaurs Collide - This Dying Wish
-------------------------------------------------------------------------------
Tabbed by: iheartdeathcore
Email: jaimeesmuyguapo@gmail.com

http://www.myspace.com/thisdyingwishrocks

Tuning: C

 Intro
  Guitar 1
e|------------------------7--------------------------------------------------|
B|---------------------------------------------------------------------------|
G|--------8----9----8------------8-----9------8h9----------------------------|
D|-6---9----9----9----9-------9-----9-----9----------------------------------|    X3
A|---------------------------------------------------------------------------|
E|---------------------------------------------------------------------------|

  Guitar 2
e|---------------------------------------------------------------------------|
B|---------------------------------------------------------------------------|
G|---------------------------------------------------------------------------|
D|-6-6--6-6-6----------------------------------------------------------------|
A|-6-6--6-6-6----------------------------------------------------------------|
E|-6-6--6-6-6----------------------------------------------------------------| . .  . . .

  Guitar 1
e|--------------------7-7-7-7-7-7-7------------------------------------------|
B|--------------------X-X-X-X-X-X-X------------------------------------------|
G|--------8----9------8-8-8-8-8-8-8------------------------------------------|
D|-6---9----9----9----9-9-9-9-9-9-9------9-9-9-9-----8-8-8-8-8-8----6-6-6----|
A|---------------------------------------9-9-9-9-----6-6-6-6-6-6----6-6-6----|
E|---------------------------------------9-9-9-9--------------------6-6-6----|..................


e|---------------------------------------------------------------------------|
B|---------------------------------------------------------------------------|
G|---------------------------------------------------------------------------|
D|--9-9-9-9-----8-8-8-8-8-8----6-6-6---1-1-1---------------------------------|  X3
A|--9-9-9-9-----6-6-6-6-6-6----6-6-6---1-1-1---------------------------------|
E|--9-9-9-9--------------------6-6-6---1-1-1---------------------------------|           
                         . . .

e|---------------------------------------------------------------------------|
B|---------------------------------------------------------------------------|
G|---------------------------------------------------------------------------|
D|--9-9-9-9---6-6-6---9-9-9----1~--------------------------------------------|
A|--9-9-9-9---6-6-6---9-9-9----1~--------------------------------------------|
E|--9-9-9-9---6-6-6---9-9-9----1~--------------------------------------------|           
. . .

Chorus
  Guitar 1
e|---------------------------------------------------------------------------|
B|---------------------------------------------------------------------------|
G|---------------------------------------------------------------------------|
D|-6-6-6-6-6-6-6-6---9-9-9-9-9-9-9-9---2-2-2-2-2-2-2-2---4-4-4-4-4-4-4-4-----|
A|-6-6-6-6-6-6-6-6---9-9-9-9-9-9-9-9---2-2-2-2-2-2-2-2---4-4-4-4-4-4-4-4-----|
E|-6-6-6-6-6-6-6-6---9-9-9-9-9-9-9-9---2-2-2-2-2-2-2-2---4-4-4-4-4-4-4-4-----|

  Guitar 2
e|-------------------------------------------------------------------------|
B|-------------------------------------------------------------------------|
G|-------------------------------------------------------------------------|
D|-----6---8---6h8-------9---11---9h11------2---4---2h4--------------------|
A|-------------------------------------------------------------------------|
E|-6-6---6---6-------9-9---9---9--------2-2---2---2------------------------|
   . . . . . . .     . . . . . .  .     . . . . . . .

e|------------------|
B|------------------|
G|------------------|           X2
D|------------------|
A|-----4---6---4h6--|
E|-4-4---4---4------|
   . . . . . . .

e|---------------------------------------------------------------------------|
B|---------------------------------------------------------------------------|
G|---------------------------------------------------------------------------|
D|--9-9-9-9-9--8-8-8-8-8--6-6-6-6--6-6-6-6--6-6-6-6--6-6-6-6-----------------|
A|--7-7-7-7-7--6-6-6-6-6--6-6-6-6--6-6-6-6--6-6-6-6--6-6-6-6-----------------|
E|------------------------6-6-6-6--6-6-6-6--6-6-6-6--6-6-6-6-----------------|

e|---------------------------------------------------------------------------|
B|---------------------------------------------------------------------------|
G|---------------------------------------------------------------------------|
D|--9-9-9-9-9--8-8-8-8-8--6-6-x-x-x-x-x-x--6-6-x-x-x-x-x-x-------------------|
A|--7-7-7-7-7--6-6-6-6-6--6-6-x-x-x-x-x-x--6-6-x-x-x-x-x-x-------------------|
E|------------------------6-6-x-x-x-x-x-x--6-6-x-x-x-x-x-x-------------------|

e|---------------------------------------------------------------------------|
B|---------------------------------------------------------------------------|
G|---------------------------------------------------------------------------|
D|--9-9-9-9-9--8-8-8-8-8--6-6-6-6-6--9-9-9-9-9-------------------------------|
A|--7-7-7-7-7--6-6-6-6-6--6-6-6-6-6--9-9-9-9-9-------------------------------|
E|------------------------6-6-6-6-6--9-9-9-9-9-------------------------------|

e|---------------------------------------------------------------------------|
B|---------------------------------------------------------------------------|
G|---------------------------------------------------------------------------|
D|--9-9-9-9-9--8-8-8-8-8--6-6-6-6-6-6~---------------------------------------|
A|--7-7-7-7-7--6-6-6-6-6--6-6-6-6-6-6~---------------------------------------|
E|------------------------6-6-6-6-6-6~---------------------------------------|


e|---------------------------------------------------------------------------|
B|---------------------------------------------------------------------------|
G|---------------------------------------------------------------------------|
D|--9-9-9-9-----8-8-8-8-8-8----6-6-6---1-1-1---------------------------------|  X3
A|--9-9-9-9-----6-6-6-6-6-6----6-6-6---1-1-1---------------------------------|
E|--9-9-9-9--------------------6-6-6---1-1-1---------------------------------|           
                         . . .

e|---------------------------------------------------------------------------|
B|---------------------------------------------------------------------------|
G|---------------------------------------------------------------------------|
D|--9-9-9-9---6-6-6---9-9-9----1~--------------------------------------------|
A|--9-9-9-9---6-6-6---9-9-9----1~--------------------------------------------|
E|--9-9-9-9---6-6-6---9-9-9----1~--------------------------------------------|           
. . .

Chorus
  Guitar 1
e|---------------------------------------------------------------------------|
B|---------------------------------------------------------------------------|
G|---------------------------------------------------------------------------|
D|-6-6-6-6-6-6-6-6---9-9-9-9-9-9-9-9---2-2-2-2-2-2-2-2---4-4-4-4-4-4-4-4-----|
A|-6-6-6-6-6-6-6-6---9-9-9-9-9-9-9-9---2-2-2-2-2-2-2-2---4-4-4-4-4-4-4-4-----|
E|-6-6-6-6-6-6-6-6---9-9-9-9-9-9-9-9---2-2-2-2-2-2-2-2---4-4-4-4-4-4-4-4-----|

  Guitar 2
e|-------------------------------------------------------------------------|
B|-------------------------------------------------------------------------|
G|-------------------------------------------------------------------------|
D|-----6---8---6h8-------9---11---9h11------2---4---2h4--------------------|
A|-------------------------------------------------------------------------|
E|-6-6---6---6-------9-9---9---9--------2-2---2---2------------------------|
   . . . . . . .     . . . . . .  .     . . . . . . .

e|------------------|
B|------------------|
G|------------------|           X2
D|------------------|
A|-----4---6---4h6--|
E|-4-4---4---4------|
   . . . . . . .

e|---------------------------------------------------------------------------|
B|---------------------------------------------------------------------------|
G|---------------------------------------------------------------------------|
D|--9-9-9-9-9--8-8-8-8-8--6-6-6-6--6-6-6-6--6-6-6-6--6-6-6-6-----------------|
A|--7-7-7-7-7--6-6-6-6-6--6-6-6-6--6-6-6-6--6-6-6-6--6-6-6-6-----------------|
E|------------------------6-6-6-6--6-6-6-6--6-6-6-6--6-6-6-6-----------------|

e|---------------------------------------------------------------------------|
B|---------------------------------------------------------------------------|
G|---------------------------------------------------------------------------|
D|--9-9-9-9-9--8-8-8-8-8--6-6-x-x-x-x-x-x--6-6-x-x-x-x-x-x-------------------|
A|--7-7-7-7-7--6-6-6-6-6--6-6-x-x-x-x-x-x--6-6-x-x-x-x-x-x-------------------|
E|------------------------6-6-x-x-x-x-x-x--6-6-x-x-x-x-x-x-------------------|

e|---------------------------------------------------------------------------|
B|---------------------------------------------------------------------------|
G|---------------------------------------------------------------------------|
D|--9-9-9-9-9--8-8-8-8-8--6-6-6-6-6--9-9-9-9-9-------------------------------|
A|--7-7-7-7-7--6-6-6-6-6--6-6-6-6-6--9-9-9-9-9-------------------------------|
E|------------------------6-6-6-6-6--9-9-9-9-9-------------------------------|


e|---------------------------------------------------------------------------|
B|---------------------------------------------------------------------------|
G|---------------------------------------------------------------------------|
D|--9-9-9-9-----8-8-8-8-8-8----6-6-6---1-1-1---------------------------------|  X3
A|--9-9-9-9-----6-6-6-6-6-6----6-6-6---1-1-1---------------------------------|
E|--9-9-9-9--------------------6-6-6---1-1-1---------------------------------|           
                         . . .

e|---------------------------------------------------------------------------|
B|---------------------------------------------------------------------------|
G|---------------------------------------------------------------------------|
D|--9-9-9-9---6-6-6---9-9-9----1~--------------------------------------------|
A|--9-9-9-9---6-6-6---9-9-9----1~--------------------------------------------|
E|--9-9-9-9---6-6-6---9-9-9----1~--------------------------------------------|           
. . .


Chorus
  Guitar 1
e|---------------------------------------------------------------------------|
B|---------------------------------------------------------------------------|
G|---------------------------------------------------------------------------|
D|-6-6-6-6-6-6-6-6---9-9-9-9-9-9-9-9---2-2-2-2-2-2-2-2---4-4-4-4-4-4-4-4-----|
A|-6-6-6-6-6-6-6-6---9-9-9-9-9-9-9-9---2-2-2-2-2-2-2-2---4-4-4-4-4-4-4-4-----|
E|-6-6-6-6-6-6-6-6---9-9-9-9-9-9-9-9---2-2-2-2-2-2-2-2---4-4-4-4-4-4-4-4-----|

  Guitar 2
e|-------------------------------------------------------------------------|
B|-------------------------------------------------------------------------|
G|-------------------------------------------------------------------------|
D|-----6---8---6h8-------9---11---9h11------2---4---2h4--------------------|
A|-------------------------------------------------------------------------|
E|-6-6---6---6-------9-9---9---9--------2-2---2---2------------------------|
   . . . . . . .     . . . . . .  .     . . . . . . .

e|------------------|
B|------------------|
G|------------------|           X2
D|------------------|
A|-----4---6---4h6--|
E|-4-4---4---4------|
   . . . . . . .

 (Clean)  Intro
e|------------------------7--------------------------------------------------|
B|---------------------------------------------------------------------------|
G|--------8----9----8------------8-----9------8h9----------------------------|
D|-6---9----9----9----9-------9-----9-----9----------------------------------|    X6
A|---------------------------------------------------------------------------|
E|---------------------------------------------------------------------------|

Chorus
  Guitar 1
e|---------------------------------------------------------------------------|
B|---------------------------------------------------------------------------|
G|---------------------------------------------------------------------------|
D|-6-6-6-6-6-6-6-6---9-9-9-9-9-9-9-9---2-2-2-2-2-2-2-2---4-4-4-4-4-4-4-4-----|
A|-6-6-6-6-6-6-6-6---9-9-9-9-9-9-9-9---2-2-2-2-2-2-2-2---4-4-4-4-4-4-4-4-----|
E|-6-6-6-6-6-6-6-6---9-9-9-9-9-9-9-9---2-2-2-2-2-2-2-2---4-4-4-4-4-4-4-4-----|

  Guitar 2
e|-------------------------------------------------------------------------|
B|-------------------------------------------------------------------------|
G|-------------------------------------------------------------------------|
D|-----6---8---6h8-------9---11---9h11------2---4---2h4--------------------|
A|-------------------------------------------------------------------------|
E|-6-6---6---6-------9-9---9---9--------2-2---2---2------------------------|
   . . . . . . .     . . . . . .  .     . . . . . . .

e|------------------|
B|------------------|
G|------------------|           X2
D|------------------|
A|-----4---6---4h6--|
E|-4-4---4---4------|
   . . . . . . .


e|---------------------------------------------------------------------------|
B|---------------------------------------------------------------------------|
G|---------------------------------------------------------------------------|
D|--9-9-9-9-----8-8-8-8-8-8----6-6-6---1-1-1---------------------------------|  X3
A|--9-9-9-9-----6-6-6-6-6-6----6-6-6---1-1-1---------------------------------|
E|--9-9-9-9--------------------6-6-6---1-1-1---------------------------------|           
                         . . .

e|---------------------------------------------------------------------------|
B|---------------------------------------------------------------------------|
G|---------------------------------------------------------------------------|
D|--9-9-9-9---6-6-6---9-9-9----1---------------------------------------------|
A|--9-9-9-9---6-6-6---9-9-9----1---------------------------------------------|
E|--9-9-9-9---6-6-6---9-9-9----1---------------------------------------------|           
. . .            .

| /  slide up
|   slide down
| h  hammer-on
| p  pull-off
| ~  vibrato
| +  harmonic
| x  Mute note
===============================================================================

 
 
Misc Unsigned Bands - This Dying Wish - When Tiger Sharks And Dinosaurs Collide Tab :: indexed at Ultimate Guitar.
This Dying Wish - When Tiger Sharks And Dinosaurs Collide tabs @ 911Tabs

Quick tip, so you can enjoy This Dying Wish - When Tiger Sharks And Dinosaurs Collide Tab even more:

YourChords.com Guitar Chords and Tabs Archive is currently indexing over 240'000 songs from 21'000+ different artists. And new chords just keep on coming in, so you will surely never run out of them.

Show us your talent, perform This Dying Wish - When Tiger Sharks And Dinosaurs Collide Tab!

Here you can post a video or audio performance. Tell me more ...
Where can we find your performance? Tell me more ...
Your comment:
Please, log in to post your performance.