Artists by letter: A B C D E F G H I J K L M N O P Q R S T U V W X Y Z 0-9
 
Turn Your Eyes Upon Jesus Tab
----------------------------------------------------------------------------
		TURN YOUR EYES UPON JESUS - Helen H. Lemmel
----------------------------------------------------------------------------
                            
                            TURN YOUR EYES UPON JESUS
                      Helen H. Lemmel  (Arranged By: SH Goh)


Gtr I (E A D G B E)

  Q=100
 4/4
  Gtr I
  Q E E Q Q Q Q Q Q Q Q Q Q Q Q Q Q Q Q Q Q Q Q Q Q Q Q Q Q Q Q Q Q Q
|-0-----0-1-0-------------0-0---0-3-1-0-0-----------------0-----0-----|
|-----3-------3-1-------------4---------------3-----1-0-1---3---------|
|---0-------------0-0---0-----------------0-0---2-2-----------0---0-0-|
|---2-----0-------2-2---2-----------------2-2-0-3-3---------------2-2-|
|-3-------------3-----3-----3-----3-----0-----------------------3-----|
|-------------3-------------------------------------1-----3-----------|


  Q Q Q Q Q Q Q Q Q Q Q Q Q Q Q Q Q Q Q Q Q Q Q Q W Q Q Q Q E E Q Q Q Q
|-----0-0---0-5-3-0-0-----------------------------1-0---0-3---0---------|
|---------4---------------3-----1-----0-----------0-------------3-1-----|
|---0-----------------2-2---2-2---0-----0-----0-0-0---0-----0-------2-2-|
|---2-----------------3-3-0-3-3-----2-----0---2-2-0---2-----0-------2-2-|
|-3-----3-----3-----------------3-----------3-----2-3-------------0-----|
|-------------------1-----------------3-----------3-------3-------------|


  Q Q Q Q Q Q Q Q Q Q Q Q Q Q E E Q Q Q Q Q Q Q Q Q Q Q E E Q E E Q Q Q
|-------1-1-1-5-1-0-----------0-1-3---3-3-0-----------------0-----0-1-0-|
|-1-----1-1---------3-----3-----------------3-1---1-1---1-3-----3-------|
|---3-3---------------0-0---0-------0-----------2-----1-------0---------|
|---2-2-------0-------0-0---0-------2-----------3-----3-------2-----0---|
|-3-------------------------------3-----3-------------------3-----------|
|-------1-----------3-----3-------------------1-----1-------------------|


  Q Q Q Q W
|---------0----|
|-3-1-----1----|
|-----0-0-0----|
|-----2-2-2----|
|---3-----3----|
|-3-------3----|

Tablature player for this song:
 
 
Misc Traditional - Turn Your Eyes Upon Jesus Tab :: indexed at Ultimate Guitar.
Turn Your Eyes Upon Jesus tabs @ 911Tabs

Quick tip, so you can enjoy Turn Your Eyes Upon Jesus Tab even more:

After the registration (which takes just 10 seconds, remember?) you will be able to use your profile - your very own piece of YourChords.com.

Show us your talent, perform Turn Your Eyes Upon Jesus Tab!

Here you can post a video or audio performance. Tell me more ...
Where can we find your performance? Tell me more ...
Your comment:
Please, log in to post your performance.