Artists by letter: A B C D E F G H I J K L M N O P Q R S T U V W X Y Z 0-9

We Will Not Go Down Chords (ver 3) - Michael Heart

 
We Will Not Go Down Chords
This is the song in standard, you can also tune down your guitar to play open chords

Michael Heart - We Will Not Go Down (Song For Gaza)

G#m:
E||-------------------||
B||--4----------------||
G||--4----------------||
D||--6----------------||
A||--6----------------||
E||--4----------------||

B:
E||-------------------||
B||-------------------||
G||--8----------------||
D||--9----------------||
A||--9----------------||
E||--7----------------||

F#:
E||-------------------||
B||--2----------------||
G||--3----------------||
D||--4----------------||
A||--4----------------||
E||--2----------------||

C#m:
E||-------------------||
B||--5----------------||
G||--6----------------||
D||--6----------------||
A||--4----------------||
E||-------------------||

E:
E||--7------------||
B||--9------------||
G||--9------------||
D||--9------------||
A||--7------------||
E||---------------||

Bsus2:
E||-------------------||
B||--2----------------||
G||--6----------------||
D||--4----------------||
A||--2----------------||
E||-------------------||

G#m                        B
A blinding flash of white light
           F#              G#m
Lit up the sky over Gaza tonight
G#m                B
People running for cover
             F#                     G#m
Not knowing whether they're dead or alive

C#m                  G#m
They came with their tanks and their planes
C#m           G#m
With ravaging fiery flames
F#            G#m
And nothing remains
       B                      B
Just a voice rising up in the smoky haze

        E   Esus2 B 
We will not go    down
                        Bsus2 F#
In the night, without a fight
        E                           B
You can burn up our mosques and our homes and our schools
                          Bsus2 F#
But our spirit will never die
        B      Bsus2
We will not go down

In Gaza tonight
B5, F#, Bsus2, F#

the rest is just the same as above but with different lyrics :]

Women and children alike
Murdered and massacred night after night
While the so-called leaders of countries afar
Debated on who's wrong or right

But their powerless words were in vain
And the bombs fell down like acid rain
But through the tears and the blood and the pain
You can still hear that voice through the smoky haze

We will not go down
In the night, without a fight
You can burn up our mosques and our homes and our schools
But our spirit will never die
We will not go down
In Gaza tonight

We will not go down
In the night, without a fight
You can burn up our mosques and our homes and our schools
But our spirit will never die

We will not go down
In the night, without a fight

We will not go down
In Gaza tonight



Tablature player for this song:
 
 
Michael Heart - We Will Not Go Down Chords :: indexed at Ultimate Guitar.
We Will Not Go Down tabs @ 911Tabs

Quick tip, so you can enjoy We Will Not Go Down Chords even more:

If you spend just 10 seconds to register, you will be able to comment on all the chords and tabs and rate them. You will as well be able to comment on videos of your fellow guitarists and give them ratings from 1 to 5 ... And - of course - you can share your own videos with them and see what they think of you. :)
Click here to join us!

Show us your talent, perform We Will Not Go Down Chords!

Here you can post a video or audio performance. Tell me more ...
Where can we find your performance? Tell me more ...
Your comment:
Please, log in to post your performance.