Artists by letter: A B C D E F G H I J K L M N O P Q R S T U V W X Y Z 0-9
 
Under The Sea Tab
Sorry it's a different key from the actual song, and I didn't figure out the breakdown
but this is what I have so far.

Intro
E-00-2-44-4-2-5-4-0---00-2-44-4-5-2-4---00-2-44-4-2-5-4-0---00-2-44-4-5-2-0-|
B---------------------------------------------------------------------------|
G---------------------------------------------------------------------------|
D---------------------------------------------------------------------------|
A---------------------------------------------------------------------------|
E---------------------------------------------------------------------------|

E-5555-4-7-5-0--------------5555-4-7-5-0--------------5555-0-5-0-5------|
B---------------5555-0-5-2----------------5555-0-5-2--------------------|
G-----------------------------------------------------------------------|
D-----------------------------------------------------------------------|
A-----------------------------------------------------------------------|
E-----------------------------------------------------------------------|
The SeaWeed is always greaner, in somebody elses lake, you dream about going up there, 
that is a big mistake. Just Look at tha world around you,

E-77-7-5--9-7-5----5555-0-5-0-5----77-7-5-9-7-5-------------------------|
B-----------------------------------------------------------------------|
G-----------------------------------------------------------------------|
D-----------------------------------------------------------------------|
A-----------------------------------------------------------------------|
E-----------------------------------------------------------------------|
Right here on the ocean floor, such wonderful things surround you, what more is you looking for.

E-9-7-5-2---9-7-5-7---9-7-5-2-2--9-7-5-7-7---9-7-5-9--------------------|
B-----------------------------------------------------------------------|
G-----------------------------------------------------------------------|
D-----------------------------------------------------------------------|
A-----------------------------------------------------------------------|
E-----------------------------------------------------------------------|
Under the sea, under the sea, darling its better, down where its wetter, take it from me

E-9-7-5-2-5-2-5-7---7-5-7-9-9-7-7-5---9-7-5-2-2--9-7-5-7-7--9-7-5-5-----|
B-----------------------------------------------------------------------|
G-----------------------------------------------------------------------|
D-----------------------------------------------------------------------|
A-----------------------------------------------------------------------|
E-----------------------------------------------------------------------|
Up on the shore they work all day, out in the sun they slave away, while we devoting 
time to floating under the sea.


Repeat from intro for second verse

 
 
Disney - Under The Sea Tab :: indexed at Ultimate Guitar.
Under The Sea tabs @ 911Tabs

Quick tip, so you can enjoy Under The Sea Tab even more:

After the registration (which takes just 10 seconds, remember?) you will be able to use your profile - your very own piece of YourChords.com.

Show us your talent, perform Under The Sea Tab!

Here you can post a video or audio performance. Tell me more ...
Where can we find your performance? Tell me more ...
Your comment:
Please, log in to post your performance.