Artists by letter: A B C D E F G H I J K L M N O P Q R S T U V W X Y Z 0-9
 
Teasing To Please Tab
Cute Is What We Aim For
Teasing to Please

Everything here should be 100% correct, but if you find any mistakes, just comment and 
try to fix what mistakes I may have made.


Enjoy.


Intro/verse. strummed (play 3x)
e-------------------------------------|
B-10101010-10101010-12121212-10101010-|
G--0-0-0-0--0-0-0-0--0-0-0-0--0-0-0-0-|
D--x-x-x-x--x-x-x-x--x-x-x-x--x-x-x-x-|
A-10101010-10101010-10101010-10101010-|
E-------------------------------------|

-------------------------------------|
-10101010-10101010-12121212-10101010-|
--0-0-0-0--0-0-0-0--0-0-0-0--0-0-0-0-|
--x-x-x-x--x-x-x-x--x-x-x-x--x-x-x-x-|
--9-9-9-9--9-9-9-9--9-9-9-9--9-9-9-9-|
-------------------------------------|

-------------------------|
-8888-8888-10101010-8888-|
-0000-0000--0-0-0-0-0000-|
-xxxx-xxxx--x-x-x-x-xxxx-|
-7777-7777--7-7-7-7-7777-|
-------------------------|

---------------------|
-8888-8888-8888-8888-|
-0000-0000-0000-0000-|
-xxxx-xxxx-xxxx-xxxx-
-xxxx-xxxx-xxxx-xxxx-
-8888-8888-7777-7777-


(play 2x)
-----------------------------------|
-10-12-10-10--12-10-8--10-8-8--8-8-|
-----------------------------------|
-----------------------------------|
-10-10-10--9---9--9-7---7-7--------|
----------------------------8--8-7-|


Chorus:
Chords/strummed (listen to song for correct strum pattern, it's easy don't worry!)
(play 2x)
-3--3--3--3-|
-3--3--3--3-|
-0--2--0--0-|
-0--0--2--2-|
-2--0--2--3-|
-3--2--0--0-|

Verse 2:
(play 2x)
-----------------------------------------|
-----------------------------------------|
-0000-0000-0000-0000-0000-0000-0000-0000-|
-0000-0000-0000-0000-2222-2222-2222-2222-|
-2222-2222-0000-0000-2222-2222-3333-3333-|
-3333-3333-2222-2222-0000-0000-0000-0000-|
p.m......................................


e-------------------------------------|
B-10101010-10101010-12121212-10101010-|
G--0-0-0-0--0-0-0-0--0-0-0-0--0-0-0-0-|
D--x-x-x-x--x-x-x-x--x-x-x-x--x-x-x-x-|
A-10101010-10101010-10101010-10101010-|
E-------------------------------------|

-------------------------------------|
-10101010-10101010-12121212-10101010-|
--0-0-0-0--0-0-0-0--0-0-0-0--0-0-0-0-|
--x-x-x-x--x-x-x-x--x-x-x-x--x-x-x-x-|
--9-9-9-9--9-9-9-9--9-9-9-9--9-9-9-9-|
-------------------------------------|

-------------------------|
-8888-8888-10101010-8888-|
-0000-0000--0-0-0-0-0000-|
-xxxx-xxxx--x-x-x-x-xxxx-|
-7777-7777--7-7-7-7-7777-|
-------------------------|

------------------|
-8888-8888-8888-8-|
-0000-0000-0000-0-|
-xxxx-xxxx-xxxx-x-
-xxxx-xxxx-xxxx-x-
-8888-8888-7777-7-


Bridge:
-3-3333-3-3333--3-3333--3-3333-|
-3-3333-3-3333--3-3333--3-3333-|
-0-0000-0-0000--2-2222--0-0000-|
-0-0000-0-0000--0-0000--2-2222-|
-2-2222-2-2222--0-0000--3-3333-|
-3-3333-3-3333--2-2222--0-0000-|

-3333333--3333333-|
-3333333--3333333-|
-0000000--2222222-|
-0000000--0000000-|
-2222222--0000000-|
-3333333--2222222-|

-----------------------------------|
-10-12-10-10--12-10-8--10-8-8--8-8-|
-----------------------------------|
-----------------------------------|
-10-10-10--9---9--9-7---7-7--------|
----------------------------8--8-7-|


Song Order:
Intro/Verse
Chorus
Verse 2
Chorus
Bridge
Chorus 2x
End on G Chord

 
 
Cute Is What We Aim For - Teasing To Please Tab :: indexed at Ultimate Guitar.
Teasing To Please tabs @ 911Tabs

About the artist behind Teasing To Please Tab:

Cute Is What We Aim For (CIWWAF) is a rock band, formed in 2005 in Buffalo, New York and currently signed to Fueled by Ramen. In 2006, their Billboard 200-charting debut album The Same Old Blood Rush with a New Touch was released on Fueled by Ramen.

Indexed at Wikipedia.

Show us your talent, perform Teasing To Please Tab!

Here you can post a video or audio performance. Tell me more ...
Where can we find your performance? Tell me more ...
Your comment:
Please, log in to post your performance.