Artists by letter: A B C D E F G H I J K L M N O P Q R S T U V W X Y Z 0-9
 
Stars Acoustic Chords
Stars by callalily from their album Destination xyz

tabbed by Nhikko Lorenzzi Lacambra

(Stars Acoustic Version)

Intro:
Em-C-G-D x6
    (6 times)
e---------------------------------------------|
B------------15-------------------------------|
G-----12-12-----12--14-14--12-14/16-14-12-----|
D---------------------------------------------|
A---------------------------------------------|
E---------------------------------------------|

[Verse1]

[Em]-[C]-[G]-[D]

A picture of you reminds me
how the years have gone
by so lonely
but why do you have to leave me
without saying that you love me 

[Pre-chorus]

[Em]-[C]-[G]-[C]
I'm saying I love you again
are you listening?
open your eyes once again
look at me crying

[Chorus]

[G]-[D]-[Em]-[C]
[G]-[D]-[C]
If only you could hear me shout your name
if only you could feel my love again
the stars in the sky will never be the same
if only you were here

[Verse2]

[Em]-[C]-[G]-[D]

A picture of you reminds me
how the days have gone
by so empty
but why do you have to leave me
without saying that you love me 

[Pre-chorus]

[Em]-[C]-[G]-[C]
I'm saying I love you again
are you listening?
open your eyes once again
look at me crying

[Chorus]

[G]-[D]-[Em]-[Ch]
[G]-[D]-[C]
If only you could hear me shout your name
if only you could feel my love again
the stars in the sky will never be the same
if only you were here

Adlib:
e-------------------------------------------|
B-------------------------------------------|
G----------------------------12h14-12-------|
D--------8h9-8--/12--14-12-14--------12-----|
A--9h11-9-----------------------------------|
E-------------------------------------------|

e-----------------------------------------------------|
B-----------------------------------------------------|
G----------------------------------12h14p12--7h9p7----|
D----------10-9----10/1212h14p12---------------------|
A--10-9---------10------------------------------------|
E-------10--------------------------------------------|

 [Pre-chorus]

[Em]-[C]-[G]-[C]
I'm saying I love you again
are you listening?
open your eyes once again
look at me crying
[Chorus without last line]

[Chorus without last line]
[G]-[D]-[Em]-[C]
[G]-[D]-[C]
If only you could hear me shout your name
if only you could feel my love again
the stars in the sky will never be the same

[ChorusII]
[G]-[D]-[Em]-[C]
[G]-[D]-[C]
If only I had wings so I can fly
i wanna be with you for all of time
my love for you will never die

[Chorus]
[G]-[D]-[Em]-[C]
[G]-[D]-[C]
if only you could here me
shout your name
if only feel my love again
the stars in the sky will never
be the same
If only were here

- sana magustuhan nyu -


Tablature player for this song:
 
 
Callalily - Stars Acoustic Chords :: indexed at Ultimate Guitar.
Stars Acoustic tabs @ 911Tabs
People who played Callalily - Stars Acoustic Chords also played these songs by Callalily:
Stars Chords, Magbalik Chords, Gabay Chords, Susundan Chords, Pasan Chords, Nananaginip Chords, Hintay Chords, Akoy Babalik Chords

About the artist behind Stars Acoustic Chords:

Callalily is a Filipino pop-rock band, composed of Kean Cipriano (Vocals), Alden Acosta (Lead Guitar), Tatsi Jamnague (Rhythm Guitar), Aaron Ricafrente (Bass) and Lemuel Belaro (Drums).

Indexed at Wikipedia.

Show us your talent, perform Stars Acoustic Chords!

Here you can post a video or audio performance. Tell me more ...
Where can we find your performance? Tell me more ...
Your comment:
Please, log in to post your performance.