Artists by letter: A B C D E F G H I J K L M N O P Q R S T U V W X Y Z 0-9

Hitler Was A Sensitive Man Tab - Anal Cunt

 
Hitler Was A Sensitive Man Tab
Band: Anal Cunt
Song: Hitler Was A Sensitive Man

Tuning: Full step down
(heavy distortion)

Intro
e|-------------------------------------------------------------------------|
B|-------------------------------------------------------------------------|
G|-------------------------------------------------------------------------|
D|-222233334444666644443333------------------------------------------------|
A|-222233334444666644443333------------------------------------------------|
E|-222233334444666644443333------------------------------------------------|


Verse
e|-------------------------------------------------------------------------|
B|-------------------------------------------------------------------------|
G|-------------------------------------------------------------------------|
D|-6--6--4-4-4--------------------------------------------------------------|
A|-6--6--4-4-4-------------------------------------------------------------|
E|-4--4--2-2-2-------------------------------------------------------------|

Heavy Screaming Part
e|-------------------------------------------------------------------------|
B|-------------------------------------------------------------------------|
G|-------------------------------------------------------------------------|
D|-3---------------------------555-4---------------------------------------|
A|-3
E|-3---------------------------555-4---------------------------------------|
                               ^play this when he starts screaming
                                hitler was a sensitive man and repeat


Ending
e|-------------------------------------------------------------------------|
B|-------------------------------------------------------------------------|
G|-------------------------------------------------------------------------|
D|-77-6~-5555-3~-----------------------------------------------------------|
A|-77-6~-5555-3~-----------------------------------------------------------|
E|-55-4~-3333-1~-----------------------------------------------------------|

Key

~ = vibrato

Tablature player for this song:
 
 
Anal Cunt - Hitler Was A Sensitive Man Tab :: indexed at Ultimate Guitar.
Hitler Was A Sensitive Man tabs @ 911Tabs
People who played Anal Cunt - Hitler Was A Sensitive Man Tab also played these songs by Anal Cunt:
A-team Theme Song Tab, I Respect Your Feelings As A Woman And A Human Tab, American Woman Tab, Stayin Alive Tab, American Woman Tab, 311 Sucks Tab

About the artist behind Hitler Was A Sensitive Man Tab:

Guy Lombardo is a song by American grindcore band Anal Cunt. Composer credit for the song would most likely be attributed to Seth Putnam, Mike Mahan and Tim Morse. It has been released in several different versions by the band and has remained a regular part of their live sets and releases since their formation.

Indexed at Wikipedia.

Show us your talent, perform Hitler Was A Sensitive Man Tab!

Here you can post a video or audio performance. Tell me more ...
Where can we find your performance? Tell me more ...
Your comment:
Please, log in to post your performance.