Artists by letter: A B C D E F G H I J K L M N O P Q R S T U V W X Y Z 0-9
 
The Black Swan Tab
Hey guys, this is my tab for The Black Swan. Im pretty sure its 98% complete and seeing
there are no tabs for it up i thought i'd submit mine.

The beginning of this song is just noodiling. i didnt bother to figure it out so if you 
to feel free

Intro: both guitars
e----------------------------------|
B----------------------------------|
G----------------------------------|
D-3-3-1-3--3-3-1-3--3-3-1-3--1-1-1-|    x2
A-3-3-1-3--3-3-1-3--3-3-1-3--1-1-1-|
E-3-3-1-3--3-3-1-3--3-3-1-3--1-1-1-|


Intro 2nd Part both guitars
e----------------------------------|
B----------------------------------|
G----------------------------------|
D-1-3-3-3--1-3-3-3--1-3-3-3--1-1-1-|     x2
A-1-3-3-3--1-3-3-3--1-3-3-3--1-1-1-|
E-1-3-3-3--1-3-3-3--1-3-3-3--1-1-1-|

Verse 1: Gtr 1 only
e-----------------------------------|
B-----------------------------------|
G-10-8-10-8-10-8-10-8-10-8-5/8------|
D-----------------------------------|     x4
A-----------------------------------|
E-----------------------------------|


e---------------|
B---------------|
G---------------|
D-1-1-1-1-1-1-1-|
A-1-1-1-1-1-1-1-|
E-1-1-1-1-1-1-1-|


e-----------------------------------|
B-----------------------------------|
G-10-8-10-8-10-8-10-8-10-8-5/8------|
D-----------------------------------|     x4
A-----------------------------------|
E-----------------------------------|

e----|
B----|
G----|
D-5*-|  harmonic
A----|
E----|


e-----------------------------------------------|
B-----------------------------------------------|
G-----------------------------------------------|
D-1-1-1-1-1-1-1--3-3-3-3-3-3-3-3--1-1-1-1-1-1-1-|
A-1-1-1-1-1-1-1--3-3-3-3-3-3-3-3--1-1-1-1-1-1-1-|
E-1-1-1-1-1-1-1--3-3-3-3-3-3-3-3--1-1-1-1-1-1-1-|


Pre Chorus: Gtr 1
e-----------|
B-----------|
G---------8-|
D-6---3---6-|
A-6---3-----|
E-6---3-----|


1st Chorus:
e---------------------------------8-------------8----------------------|
B-------8-----------8---------8----8--------8----8--(-------8--(x2)-8--|
G---8----8------8----8----------8---8--------8----8-(---8----8----)--8-|
D-6---6---6---6---6---6---6-5----------6-5----------(-6---6---6---)--6-|
A----------------------------------------------------------------------|
E----------------------------------------------------------------------|

Verse 2

e----------------------------------|
B----------------------------------|
G----------------------------------|
D-3-3-1-3--3-3-1-3--3-3-1-3--1-1-1-|    x2
A-3-3-1-3--3-3-1-3--3-3-1-3--1-1-1-|
E-3-3-1-3--3-3-1-3--3-3-1-3--1-1-1-|

e-----------------------------------|
B-----------------------------------|
G-10-8-10-8-10-8-10-8-10-8-5/8------|
D-----------------------------------|     x4
A-----------------------------------|
E-----------------------------------|


e---------------|
B---------------|
G---------------|
D-1-1-1-1-1-1-1-|
A-1-1-1-1-1-1-1-|
E-1-1-1-1-1-1-1-|


e-----------------------------------|
B-----------------------------------|
G-10-8-10-8-10-8-10-8-10-8-5/8------|
D-----------------------------------|     x4
A-----------------------------------|
E-----------------------------------|

e----|
B----|
G----|
D-5*-|  harmonic
A----|
E----|


e------------------------------------------------xxxxxx-|
B------------------------------------------------xxxxxx-|
G------------------------------------------------xxxxxx-|
D-1-1-1-1-1-1-1--3-3-3-3-3-3-3-3--1-1-1-1-1-1-1--xxxxxx-|
A-1-1-1-1-1-1-1--3-3-3-3-3-3-3-3--1-1-1-1-1-1-1--xxxxxx-|
E-1-1-1-1-1-1-1--3-3-3-3-3-3-3-3--1-1-1-1-1-1-1--xxxxxx-|


2nd Chorus: Gtr 1
e---------------------------------8-------------8----------------------|
B-------8-----------8---------8----8--------8----8--(-------8--(x2)-8--|
G---8----8------8----8----------8---8--------8----8-(---8----8----)--8-|
D-6---6---6---6---6---6---6-5----------6-5----------(-6---6---6---)--6-|
A----------------------------------------------------------------------|
E----------------------------------------------------------------------|

Gtr 2
e-----------------------------------------------|
B-----------------------------------------------|
G-----------------------------------------------|
D-1-1-1-1-1--3-3-3-3-3--1-1-1-1-1-1-1-1-1-1-1-1-|
A-1-1-1-1-1--3-3-3-3-3--1-1-1-1-1-1-1-1-1-1-1-1-|
E-1-1-1-1-1--3-3-3-3-3--1-1-1-1-1-1-1-1-1-1-1-1-|

e-------------------------------------------------------------------------|
B--------------13-13-13-13-13-13--11-11-11-11-11-11-11-11-11-11-11--16-16-|
G---------------x--x--x--x--x--x--x--x--x--x--x--x--x--x--x--x--x----x--x-|
D-1-1-1-1-1-1--10-10-10-10-10-10--8--8--8--8--8--8--8--8--8--8--8---13-13-|
A-1-1-1-1-1-1-------------------------------------------------------------|
E-1-1-1-1-1-1-------------------------------------------------------------|


Bridge: Both gtrs
e----------------------------------|
B----------------------------------|
G----------------------------------|
D-3-3-1-3--3-3-1-3--3-3-1-3--1-1-1-|    x2
A-3-3-1-3--3-3-1-3--3-3-1-3--1-1-1-|
E-3-3-1-3--3-3-1-3--3-3-1-3--1-1-1-|


e---------------------------------|
B---------------------------------|
G---------------------------------|
D-1-3-3-3--1-3-3-3--1-3-3-3-------|     x2
A-1-3-3-3--1-3-3-3--1-3-3-3-------|
E-1-3-3-3--1-3-3-3--1-3-3-3---3b--|

e-------------|
B-------------|
G-------------|
D-------3-----|     x8
A-1/15--3-----|
E-1/15--3--3b-|


Pre Chorus: Gtr 1
e-----------|
B-----------|
G---------8-|
D-6---3---6-|
A-6---3-----|
E-6---3-----|

Last Chorus: Gtr 1
e---------------------------------8-------------8----------------------|
B-------8-----------8---------8----8--------8----8--(-------8--(x2)-8--|
G---8----8------8----8----------8---8--------8----8-(---8----8----)--8-|
D-6---6---6---6---6---6---6-5----------6-5----------(-6---6---6---)--6-|
A----------------------------------------------------------------------|
E----------------------------------------------------------------------|

Gtr 2
e-----------------------------------------------|
B-----------------------------------------------|
G-----------------------------------------------|
D-1-1-1-1-1--3-3-3-3-3--1-1-1-1-1-1-1-1-1-1-1-1-|
A-1-1-1-1-1--3-3-3-3-3--1-1-1-1-1-1-1-1-1-1-1-1-|
E-1-1-1-1-1--3-3-3-3-3--1-1-1-1-1-1-1-1-1-1-1-1-|

e-------------------------------------------------------------------------|
B--------------13-13-13-13-13-13--11-11-11-11-11-11-11-11-11-11-11--16-16-|
G---------------x--x--x--x--x--x--x--x--x--x--x--x--x--x--x--x--x----x--x-|
D-1-1-1-1-1-1--10-10-10-10-10-10--8--8--8--8--8--8--8--8--8--8--8---13-13-|
A-1-1-1-1-1-1-------------------------------------------------------------|
E-1-1-1-1-1-1-------------------------------------------------------------|

Outro: both guitars
e----------------------------------|
B----------------------------------|
G----------------------------------|
D-3-3-1-3--3-3-1-3--3-3-1-3--1-1-1-|    x2
A-3-3-1-3--3-3-1-3--3-3-1-3--1-1-1-|
E-3-3-1-3--3-3-1-3--3-3-1-3--1-1-1-|


Outro 2nd Part both guitars
e----------------------------------|
B----------------------------------|
G----------------------------------|
D-1-3-3-3--1-3-3-3--1-3-3-3--1-1-1-|     x2
A-1-3-3-3--1-3-3-3--1-3-3-3--1-1-1-|
E-1-3-3-3--1-3-3-3--1-3-3-3--1-1-1-|

Tablature player for this song:
 
 
Story Of The Year - The Black Swan Tab :: indexed at Ultimate Guitar.
The Black Swan tabs @ 911Tabs

Quick tip, so you can enjoy The Black Swan Tab even more:

You might want to transpose the song if it is too high or too low for you to sing. Just click the desired option while playing a song and all the chords will automatically be transponded into a new key.

Show us your talent, perform The Black Swan Tab!

Here you can post a video or audio performance. Tell me more ...
Where can we find your performance? Tell me more ...
Your comment:
Please, log in to post your performance.