Artists by letter: A B C D E F G H I J K L M N O P Q R S T U V W X Y Z 0-9
 
Dare4distance Chords
ok so my first tab had a few mistakes in it :/ but this one is going to be
perfect! :] this one isn't that hard. 



INTRO/VERSE!!!


   I got the concept...  top floor...  fact that...  cant' get...
e|------------0------------0------------0-------------0--------------------|
B|------------0------------0------------0-------------0--------------------|
G|------------9------------9------------6-------------2--------------------|
D|------------9------------9------------6-------------4--------------------|
A|------------7------------6------------4-------------4--------------------|
E|------------0------------0------------0-------------0--------------------|


          you appeared...  marched... is where...    both just...
e|------------0~-----------0~-----------0~------------0~-------------------|
B|--------0---0~-----------0~-----------0~------------0~-------------------|
G|------------9~-----------9~-----------6~------------2~-------------------|
D|------------9~-----------9~-----------6~------------4~-------------------|
A|------------7~-----------6~-----------4~------------4~-------------------|
E|------------0~-----------0~-----------0~------------0~-------------------|


     although the distance is daring we both know how to drive
e|-------------------0-------------------0-----------------0---------------|
B|-------------------0-------------------0-----------------0---------------|
G|-------------------6-------------------4-----------------0---------------|
D|-------------------6-------------------4-----------------2---------------|
A|-------------------4-------------------2-----------------2---------------|
E|-------------------0-------------------0-----------------0---------------|



CHORUS!!!



     we can't  make up... lost times... I can't stand the fact...
e|---0~---------0~---------0~-----------0~-------0~--------0~--------------|
B|---0~---------0~---------0~-----------0~-------0~--------0~--------------|
G|---1~---------4~---------2~-----------1~-------4~--------2~--------------|
D|---2~---------4~---------2~-----------2~-------4~--------2~--------------|
A|---2~---------2~---------0~-----------2~-------2~--------0~--------------|
E|---0~---------0~---------0~-----------0~-------0~--------0~--------------|

  is the center   of my   day
e|---------0--------0------0-----------------------------------------------|
B|---------0--------0------0-----------------------------------------------|
G|---------6--------4------2-----------------------------------------------|
D|---------6--------4------2-----------------------------------------------|
A|---------4--------2------0-----------------------------------------------|
E|---------0--------0------0-----------------------------------------------|



Alt. VERSE!!!

play the verse but just mute all the strings and keep a strum going in
between the chords till the end



CHORUS!!!

play it the same but repeat the ending once


BRIDGE!!!

   mon..   tues..    wed..    worst..  thurs..   fri..   face.. breathe..   
e|---0~-------0~-------0~-------0~-------0~-------0~-------0~-------0~-----|
B|---0~-------0~-------0~-------0~-------0~-------0~-------0~-------0~-----|
G|---1~-------4~-------6~-------2~-------1~-------4~-------6~-------2~-----|
D|---2~-------4~-------6~-------2~-------2~-------4~-------6~-------2~-----|
A|---2~-------2~-------4~-------0~-------2~-------2~-------4~-------0~-----|
E|---0~-------0~-------0~-------0~-------0~-------0~-------0~-------0~-----|



OUTRO!!!

     although the distance is daring i sure know what its like to be alone
e|-------------------0-------------------0-----------------0---------------|
B|-------------------0-------------------0-----------------0---------------|
G|-------------------6-------------------4-----------------2---------------|
D|-------------------6-------------------4-----------------2---------------|
A|-------------------4-------------------2-----------------0---------------|
E|-------------------0-------------------0-----------------0---------------|


so there it is :] hope it works for you



 


 
 
Nevershoutnever - Dare4distance Chords :: indexed at Ultimate Guitar.
Dare4distance tabs @ 911Tabs

Quick tip, so you can enjoy Dare4distance Chords even more:

If you spend just 10 seconds to register, you will be able to comment on all the chords and tabs and rate them. You will as well be able to comment on videos of your fellow guitarists and give them ratings from 1 to 5 ... And - of course - you can share your own videos with them and see what they think of you. :)
Click here to join us!

Show us your talent, perform Dare4distance Chords!

Here you can post a video or audio performance. Tell me more ...
Where can we find your performance? Tell me more ...
Your comment:
Please, log in to post your performance.