Artists by letter: A B C D E F G H I J K L M N O P Q R S T U V W X Y Z 0-9
 
All My Life Chords
Chords by:Adrienne Hugo Mirto

add nyo pla aq ha:

yensweetie_10@yahoo.com sa friendster,myspace and hi5... tnx... :-)


Intro:E-F#m-A-Am........


E            F#m
All my life, without a doubt i give you

A            Am                      C#m
All my life, now and forever til' the day I die

G#m            F#m   B
You and I will share..........

E            F#m
All the things, this changing world can offer

A             Am                   C#m
And so I sing, I'd be happy just to stay this way

G#m            F#m     B
Spend each day with you........


Refrain & Chorus:

A                 B
There was a time , when I just thought that

        G#m           C#m
I would lose my mind, you came along and then

    F#m           B                E    E7
The sun did shine, I started on my way..........


A           B
I do recall that every moment spent

     G#m         C#m                       F#m
was wasted time, but then I chose to lay it on the line

B                        A
I would have passed away, I would have passed away.....

Am
I would have passed........

Bridge:E-Bm-A-Am-G#m-C#m-F#m-B

sori kung simple lng nagwa q... medyo nagmamadali poh aq eh...

e|----------------------------------------------------------|
B|------------------3---5---0-------------------------------|
G|-1-1-1- 2--2/4---------------------6---6--6---8--8/9--9---|
D|----------------------------------------------------------|
A|----------------------------------------------------------|
E|----------------------------------------------------------|

e|----------------------------------------------------------|
B|----------------------------------------------------------|
G|-4-4--4--6----88/9--4---2--4----6------------------------|
D|---------------------------------------4------------------|
A|----------------------------------------------------------|
E|----------------------------------------------------------|


E            F#m
All my life, I will carry you through

A           Am                     C#m
all my life between each shower of the passing days

G#m              F#m      B
I will stay with you......


Refrain & Chorus:
A                 B
There was a time, when I just thought that

        G#m           C#m
I would lose my mind, you came a long and  then

   F#m             B                E    E7
The sun did shine, I started on my way......

Refrain & Chorus:

A           B                      G#m
I do recall that every moment spent was wasted time

C#m                        F#m
But then I chose to lay it on the line......

B                    A
I want this all my life, I want this all my life

Am                    E
I want this all my life.....


Ganda tlga ni2ng song...it reminds me of something special... hehehe... :-) cenxa na poh 
chords q ha yan lng nakayanan q eh... hehehe... bsta cge ingatzzz kyong lhat!!   
HuGo MiRtO*

Tablature player for this song:
 
 
America - All My Life Chords :: indexed at Ultimate Guitar.
All My Life tabs @ 911Tabs

Quick tip, so you can enjoy All My Life Chords even more:

You might want to transpose the song if it is too high or too low for you to sing. Just click the desired option while playing a song and all the chords will automatically be transponded into a new key.

Show us your talent, perform All My Life Chords!

Here you can post a video or audio performance. Tell me more ...
Where can we find your performance? Tell me more ...
Your comment:
Please, log in to post your performance.